Guitar Tabs, Chords and Lyrics
Major upgrade!! After one year development the new version of Chordie is now online! Please give feedback.


Turbulence  Bowling for Soup

 
 -------------------------------------------------------------------------------

TURBULENCE - Bowling For Soup
 
 -------------------------------------------------------------------------------

Tabbed by: Aidan Panvalkar
E-mail: aidanpanvalkar@hotmail.co.uk
Tuning: Standard
[Intro] 
 
 e|------------0h2-------------3---------------3-------0-----0-----|
 B|----------3-----3-------------3---------------3-----3-----2-----|
 G|--------2---------2-------0---------------2-----2---2-----2-----|
 D|----0-------------------0---------0-----2---------2-2-----2-----|
 A|0h2-------------------------------------------------0-----0-----|
 E|--------------------3-----------2---0---------------------------|

[Verse 1] 
[Bm]It's so hard to [G]figure out
[Em]Which way to [Asus]turn [A]
[Bm]There's no going [G]back now
[Em]All your bridges [Asus]burned[A]
[Bm]The stars are gonna [A]shine on you
 
 e|-2----------3-------3-----------|
 B|-3----------0-------0-----------|
 G|-2----------0-------0-----------|
 D|-0----2/4---0-------0---0-0---0-|
 A|------------2-------2---0-0---0-|
 E|------------3-------3---3-2---2-| 

If you can get through the day
[Em7]Storm clouds all around you
But a [Asus]blue skies on the [A]way.
[Cborus] 
[D] A[G]nd we're all just [D]passengers t[A]onight
[D] A[G]nd we're all just [D]traveling thro[A]ugh our lives [Bm]
[D] [G]We will reach our destination [D]
So ju[A]st hang on for the rid[Bm]e
Say a pray[C]er and close your eyes
G (hold)
It's just a little turbulence.
 
 e|------------0h2-------------3---------------3-------0-----0-----|
 B|----------3-----3-------------3---------------3-----3-----2-----|
 G|--------2---------2-------0---------------2-----2---2-----2-----|
 D|----0-------------------0---------0-----2---------2-2-----2-----|
 A|0h2-------------------------------------------------0-----0-----|
 E|--------------------3-----------2---0---------------------------|

[Verse 2] 
[Bm]Take a look aroun[G]d you
[Em]Look how far you've co[Asus]me [A]
[Bm]Your whole life in front[G] of you
[Em]You've only just begun[Asus] [A]
[Bm]We've all got our probl[A]ems
 
 e|-2----------3-------3-----------|
 B|-3----------0-------0-----------|
 G|-2----------0-------0-----------|
 D|-0----2/4---0-------0---0-0---0-|
 A|------------2-------2---0-0---0-|
 E|------------3-------3---3-2---2-|

But they're just bumps in the road
[Em]If you only keep on fighting
[A]There's no where you can't go.
[Cborus 2] 
[ Tab from: bttp://www.guitartabs.cc/tabs/b/bowling_for_soup/turbulence_crd_ver_4.btml ] 
[D] A[G]nd we're all just [D]passengers t[A]onight
[D] A[G]nd we're all just [D]traveling thro[A]ugh our lives [Bm]
[D] [G]We will reach our destination [D]
So ju[A]st hang on for the rid[Bm]e
Say a pray[C]er and close your eyes
G (hold)
It's just a little turbulence.
[Bridge] 
[Em]This life can be so c[A]razy
[D]Can spin out of contro[G]l
But I [Em]hope that all your [A]dreams come [D]true
Cause you [Em]know that you're am[A]azing
And no [Bm]matter [A]where you [E]go [D]
I'll be [G]there for you
We can m[Asus]ake it through. [A] [Aadd2] [A]
[Cborus 3] 
 
 e|--------3---------------2p0-------------------------------------|
 B|----------------------------------------2-------3p2-----2-------|
 G|----------------------------------------------------------------|
 D|----------------0-----------------------------------------------|
 A|--------------------------------0-------------------------------|
 E|3---------------------------------------------------------------|

And we're all just passengers tonight
 
 e|--------3---------------2p0-------------------------2-2---0-0---|
 B|----------------------------------------2-------3---3-3---2-2---|
 G|----------------------------------------------------4-4---2-2---|
 D|----------------0-----------------------------------4-4---2-2---|
 A|--------------------------------0-------------------2-2---0-0---|
 E|3---------------------------------------------------------------|

And we're all just traveling through our lives
[D] [G]We will reach our destination [D]
So ju[A]st hang on for the rid[Bm]e
Say a pray[C]er and close your eyes
G (hold)
It's just a little turbulence.
[Cborus 4] 
[D] A[G]nd we're all just [D]passengers t[A]onight
[D] A[G]nd we're all just [D]traveling thro[A]ugh our lives [Bm]
[D] [G]We will reach our destination [D]
So ju[A]st hang on for the rid[Bm]e
Say a pray[C]er and close your eyes
G (hold)
It's just a little turbulence.
 
 e|------------0h2-------------3---------------3-------0-----0-----|
 B|----------3-----3-------------3---------------3-----3-----2-----|
 G|--------2---------2-------0---------------2-----2---2-----2-----|
 D|----0-------------------0---------0-----2---------2-2-----2-----|
 A|0h2-------------------------------------------------0-----0-----|
 E|--------------------3-----------2---0---------------------------|


Important: The song above is NOT stored on the Chordie server. The original song is hosted at www.guitartabs.cc. Chordie works as a search engine and provides on-the-fly formatting. Chordie does not index songs against artists'/composers' will. To remove this song please click here.

Text color:
Chord color:
Chord grids: 
Font size:    
Page size: 

A Aadd2 Asus Bm C D E Em Em7 G
Rate #2 of 14 versions

Jango Player

Login - add to songbook

SHARE PAGE  



You need to log in to post comments