Guitar Tabs, Chords and Lyrics
Major upgrade!! After one year development the new version of Chordie is now online! Please give feedback.


Southern Comfort Zone  Brad Paisley

I spent a long time tabbing this correctly. This is just the way Brad Paisley performed it,
when he performed the entire song acousticly at the Grand Ole Opry!
Rate 5 stars if you like the tab!
Thanks and enjoy!
Tabbed by: Robin S.
Email: robinsa656@hotmail.com
_____________________________________________________________________________
Artist: Brad Paisley
Song: Southern Comfort Zone
Album: Wheelhouse
Tuning: Standard
Capo: None
_____________________________________________________________________________
CHORDS:
E: 076454
Eadd9: 074454
E/A: 006454
Asus4: 004454
A: x02220
Asus: x00230
Asus2: x02200
C#m: x46654
B: x24400
F#: 244xxx
D#: x688xx
[INTRO] 
[E] [Eadd9] [E] [Eadd9]  
 
 e|--4---4---4--4--4--|--4---4---4---4--4--4--|--4----4---4--4--4--|--4---4---4---4--4--4---| |
 B|--5---5---5--5--5--|--5---5---5---5--5--5--|--5----5---5--5--5--|--5---5---5---5--5--5---| |
 G|--4---4---4--4--4--|--4---4---4---4--4--4--|--4----4---4--4--4--|--4---4---4---4--4--4---| |
 D|--6---6---6--6--6--|--4---4---4---4--4--4--|--4h6--6---6--6--6--|--4---4---4---4--4--4---| |
 A|--7---7---7--7--7--|--7---7---7---7--7--7--|--7----7---7--7--7--|--7---7---7---7--7--7---| |
 E|--0---0---0--0--0--|--0---0---0---0--0--0--|--0----0---0--0--0--|--0---0---0---0--0--0---| |

|
E/A Asus4 E/A Asus4 | 4X
 
 e|--4----4---4--4--4--|--4---4---4---4--4--4--|--4----4---4--4--4--|--4---4---4---4--4--4--| |
 B|--5----5---5--5--5--|--5---5---5---5--5--5--|--5----5---5--5--5--|--5---5---5---5--5--5--| |
 G|--4----4---4--4--4--|--4---4---4---4--4--4--|--4----4---4--4--4--|--4---4---4---4--4--4--| |
 D|--4h6--6---6--6--6--|--4---4---4---4--4--4--|--4h6--6---6--6--6--|--4---4---4---4--4--4--| |
 A|--0----0---0--0--0--|--0---0---0---0--0--0--|--0----0---0--0--0--|--0---0---0---0--0--0--| |
 E|--0----0---0--0--0--|--0---0---0---0--0--0--|--0----0---0--0--0--|--0---0---0---0--0--0--| |

[VERSE] 
When [E]your wheel[Eadd9]house is the [E]land of [Eadd9]cotton
The first [E/A]time you [Asus4]leave it can be [E/A]strang[Asus4]e - it can be[E] shocking[Eadd9] [E] [Eadd9]
Not everybody [E]drives a [Eadd9]truck, not everybody [E]drinks sweet[Eadd9] tea
Not everybody [E/A]owns a [Asus4]gun, wears a [E/A]ball cap boots and [Asus4]jeans
Not everybody [E]goes to [Eadd9]church or watches every [E]NASCAR [Eadd9]race
Not everybody [E/A]knows the [Asus4]words to "Ring O[E/A]f Fire" or "Amazing Gr[E]ace"
[PRE-CBOURS] 
[C#m]Oh, Dixie Land, I [B]hope you understand
[CBOURS] 
That when I [Asus2]miss my Tennessee [E]home[Eadd9]
And I've [Asus2]been away way too [E]long[Eadd9]
That I can't [Asus2]see this world unless I [C#m]go
Outside my [Asus]southern [Asus2]comfort [E]zone[Eadd9] [E] [Eadd9]
[VERSE] 
I have walked the [E]streets of Rome, I have been to [E]foreign [Eadd9]lands
I know what it's [E/A]like to [Asus4]talk and have nobody [E/A]under[Asus4]stand
I have seen the [E]Eiffel [Eadd9]Tower lit up on a [E]Paris [Eadd9]night
I have kissed a [E/A]West coast [Asus4]girl underneath the [E/A]Northern [Asus4]Lights
I know what it's [C#m]like to be, the only one like me
To take a [B]good hard look around and be in the [B]mi-[C#]nor-[D#]i-t[B]y
[CBOURS] 
And then I [Asus2]miss my Tennessee [E]home[Eadd9]
But I can [Asus2]see the ways that [E]I've [Eadd9]grown
And I can't [Asus2]see this world unless I [C#m]go outside my [Asus]southern [Asus2]comfort [E]zone[Eadd9]
[BRIDGE] 
I miss your [C#m]biscuits and your gravy fireflies [B]dancing in the night
You have [F#]fed me you have saved me Billy [A]Graham and Martha White
But I've [C#m]since become a drifter and I [B]just can't wait to pack
'Cause I [F#]know the road I leave on, it will [A]always bring me back
[INSTRUMENTAL] 
| E - Eadd9 | E - Eadd9 | Asus2 | Asus2 | Asus2 | Asus2 |
[PRE-CBOURS] 
I [E]wish I [Eadd9]was in [E]Di[Eadd9]xie - a[E/A]-way[Asus4] [E/A] [Asus4]
[CBOURS] 
And I [Asus2]miss my Tennessee [E]home[Eadd9]
And I've [Asus2]been away way too [E]long[Eadd9]
But I can't [Asus2]see this world unless I [C#m]go outside my [Asus]southern [Asus2]comfort [E]zone[Eadd9] [E] [Eadd9]
Look [E/A]A-wa[Asus4]y - look [E/A]A-wa[Asus4]y
I [E]wish I [Eadd9]was in [E]Di[Eadd9]xie - a[E/A]-way[Asus4], look [E/A]a-wa[Asus4]y
I[E] wish [Eadd9]I was in the [E]land of [Eadd9]cotto-n[E/A] -[Asus4] look [E/A]a-wa[Asus4]y
| E - Eadd9 | E - Eadd9 |
A[E/A]-way[Asus4] - look [E/A]A-wa[Asus4]y
[E] [Eadd9] [E]Li[Eadd9]ve and die - [E/A]in D[Asus4]ixie[E/A] [Asus4]
In[E] Dixie
[END] 
Rate 5 stars if you liked the tab!

Important: The song above is NOT stored on the Chordie server. The original song is hosted at www.guitartabs.cc. Chordie works as a search engine and provides on-the-fly formatting. Chordie does not index songs against artists'/composers' will. To remove this song please click here.

Text color:
Chord color:
Chord grids: 
Font size:    
Page size: 

A Asus Asus2 Asus4 B C# C#m D# E Eadd9 F#
Rate #1 of 10 versions

Login - add to songbook

SHARE PAGE  




You need to log in to post comments