Guitar Tabs, Chords and Lyrics
Major upgrade!! After one year development the new version of Chordie is now online! Please give feedback.


Whiskey Lullaby  Brad Paisley

 
 ----------------------------------------------------------------------------------

Brad Paisley - Whiskey Lullaby
 
 ----------------------------------------------------------------------------------

$2 Food Stamp
halo2k@forerunners.org
h = hammer on
p = pull off
b = bend
/ = slide up
\ = slide down
~ = vibrato
() = harmonics
r = release
b^ = bend up and down
==========================================
whos ready to get`r done!?
the intro is a little trick but the chords are pretty simple to figure out..
INTRO
 
 |------0h2-2-0---------0h2-2-0---0-2-3----3/5-5/7b------------------------------------------|
 |-0------------3-2-0-----------3--------------------5-3-2-----------------------------------|
 |--------------------------------------2----------------------------------------------------|
 |-------------------------------------------------------0-----------------------------------|
 |-2--2--------------------------------------------------------------------------------------|
 |-------------------------------------------------------------------------------------------|

Ds(Fill 1) ( x x 0 2 3 0h2 )
G ( 3 2 0 0 3 3 )
Bm ( x x 4 4 3 2 )
A ( x 0 2 2 2 0 )
A(Fill 2) ( x 0 2 2 2h3 0 )
S[A]he put him out like the b[G]urning end of a midnight c[Bm]igarette
A Ds(Fill 1)G A
She broke his heart he spent his whole life trying to forget
Bm A Ds(Fill 1)
We watched him drink his pain away a little at a time
Bm A Ds(Fill 1) A(Fill 2)
But he never could get drunk enough to get her off his mind, until the night
He put that bottle to his head and pulled the trigger
And fi[Bm]nally drank away her m[A]emor[G]y
D A(Fill 2)
Life is short but this time it was bigger
Than the str[Bm]ength he had to get up o[A]ff his k[G]nees
D A(Fill 2)
They found him with his face in the pillow
With a n[Bm]ote that said I'll love her t[A]ill I d[G]ie
D A(Fill 2)
And when we buried him beneath the willow
The ang[G]els sang a whiskey lu[Bm]llaby
[Bm]La La La La La La La La La La La La La [G]La
[Bm]La La La La La La La La La La La La La [G]La
**repeat chords for verse 2 and chorus 2. just the lyrics are different**

Important: The song above is NOT stored on the Chordie server. The original song is hosted at www.guitartabs.cc. Chordie works as a search engine and provides on-the-fly formatting. Chordie does not index songs against artists'/composers' will. To remove this song please click here.

Text color:
Chord color:
Chord grids: 
Font size:    
Page size: 

A Bm G
Rate #1 of 17 versions

Login - add to songbook

SHARE PAGE  



You need to log in to post comments