Guitar Tabs, Chords and Lyrics
Major upgrade!! After one year development the new version of Chordie is now online! Please give feedback.


Failure by Design   Brand New

 
 ---|-----------------------------------------|
 ---|-----------------------5-----------------|
 ---|---------------6----------6--------------| mmkay see that slide in there?
 -2-|-2--2--2--2/------6--6-------6-----------| just slide that chord up into
 -2-|-2--2--2--2/-4----4--4-------4-----------| that minor bar chord position.
 -0-|-0--0--0--0---------------------0--------| that first chord is that quick

 


 m m m m m pick up chord.


 


 

 
 -----------------------------------------|
 -----------------------------------------|
 ----------------------------5------------|
 -2--2--2--2--2----------------6----------| the (m) means that it's muted,
 -2--2--2--2--2--4/-6--6--6-------6--2----| but only a little bit, not as
 -0--0--0--0--0--2/-4--4--4-------4--0----| much as the other muted chords.

 


 [m] [m] [(m)(m)] [m] [m]  


 

 
 ------------------------------------------------------------------|
 -----------------------5------------------------------------------|
 ---------------6----------6---------------------------------------|
 -2--2--2--2/------6--6---------6\-4--4--4-------------------------|
 -2--2--2--2/-4----4--4---------4\-2--2--2--2-2-2-4-2-0-2-0--------|
 -0--0--0--0/------------------------------------------------4-2---|

 


 [m] [m] [m] [m] [m] [m] 


 That's the whole little beginning part for the first guitar part, play it twice.


 shortly after the words srart going, the drums and the second guitar come in. Here's


 the second guitar part, dont hurt yourself trying to play this!It might not be right


 because you really cant hear it over the other guitar, but it doesn't matter because


 it's a stupid, easy background part and nobody likes it!


 

 
 --------------------------------------------------------------------------|
 --------------------------------------------------------------------------|
 --------------------------------------------------------------------------|
 --------------------------------------------------------------------------|
 7-7-7-7-7/9-9-9-9-7-7-7-7-7/9-9-9-9-9/11-11-11-9-9-9-9-9------------------|
 --------------------------------------------------------------------------|

 


 play this TWO times.


 


 alright, now for the second part. I guess this is what you would call the pre-chorus.


 It's where it's all like "dont believe in filler baby" or whatever the words are. It's


 much more distorted than the beginning.


 ( Tab from: http://www.guitartabs.cc/tabs/b/brand_new/failure_by_design_tab_ver_3.html )


 

 
 ------0--5-5-5-5---5-5-5---------x-x---------------------------------|
 ------0--5-5-5-5---5-5-5---------x-x---------------------------------|
 -1----1--8-8-8-8---8-8-8--4------x-x-5--6--8--3--5-------------------|
 -2----2--7-7-7-7---7-7-7--2------x-x-6--7--9--4--6-------------------|
 -2----2--7-7-7-7---7-7-7--2------x-x-6--7--9--4--6-------------------|
 -0----0--5-5-5-5---5-5-5--0------x-x-4--5--7--2--4-------------------|

 


 ^comes in on the offbeat. listen closely to it to get it.


 


 That's the whole first part of the song. Chorus is pretty easy, it gets led into by


 "THIS IS OVER!" Love this song so much. here's the chorus. play this twice, it's got


 split endings though.


 


 CHORUS:


 

 
 --5-5-5-5-5-5-5-5-5/-7-7-7-7-7-0---0--0--0-------------------4--4--4/-----|
 --5-5-5-5-5-5-5-5-5/-7-7-7-7-7-0---0--0--0-------------------5--5--5/-9---|
 --6-6-6-6-6-6-6-6-6/-8-8-8-8-8-1---1--1--1-------------------6--6--6/-9---|
 --7-7-7-7-7-7-7-7-7/-9-9-9-9-9-2---2--2--2-------------------6--6--6/-9---|
 --7-7-7-7-7-7-7-7-7/-9-9-9-9-9-2---2--2--2--2-----2------2/4-4--4--4/-7---|
 --5-5-5-5-5-5-5-5-5/-7-7-7-7-7-0---0--0--0----4-0---4-0-------------------|..

 


 __________1st ______________2nd


 

 
 ---------2---2--x-x--4---4-|-5----------|-4-4-4-4-5------------|
 -9-9-x-x-2---2--x-x--4---4-|-5----------|-4-4-4-4-5--r---------|
 -9-9-x-x-3---3--x-x--5---5-|-6----------|-5-5-5-5-6--i---------|
 -9-9-x-x-4---4--x-x--6---6-|-7--7*-7*---|-6-6-6-6-7--n---------|
 -7-7-x-x-4---4--x-x--6---6-|-7----------|-6-6-6-6-7--g---------|
 ---------2---2--x-x--4---4-|-5----------|-4-4-4-4-5------------|

 


 Those stars are natural harmonics. now pla[m]y [m]th[m]e [m]whole thing again, then there's just


 one more part to learn! Here it is. This is where everything kinda dies down, then


 builds up again.


 


 

 
 --------------------------------------------------------------------------|
 --------------------5-----------------------------------5-----------------|
 --------------------------------------------------------------------------|
 -2-2-2-2-2-2-2-2-----------4---4/-6--2-2-2-2-2-2-2-2-----------4---4/-6---|
 -2-2-2-2-2-2-2-2--4---4\-2---2-------2-2-2-2-2-2-2-2--4---4\-2---2--------|
 -0-0-0-0-0-0-0-0---------------------0-0-0-0-0-0-0-0----------------------|

 


 [m] [m] [m] [m] [m] [m] [m] [m] [m] [m] [m] [m] [m] [m] [m] [m] 


 

 
 -----------------------------------------------------------------------------|
 --------------------5---------------------------------5-5-5-4-4-4-4-4--------|
 ------------------------------------------------------6-6-6-4-4-4-4-4--------|
 -2-2-2-2-2-2-2-2-----------4---4/-6--2-2-2-2-2-2-2-2--6-6-6-4-4-4-4-4--------|
 -2-2-2-2-2-2-2-2--4---4\-2---2-------2-2-2-2-2-2-2-2--4-4-4-2-2-2-2-2--------|
 -0-0-0-0-0-0-0-0---------------------0-0-0-0-0-0-0-0-------------------------|

 


 [m] [m] [m] [m] [m] [m] [m] [m] [m] [m] [m] [m] [m] [m] [m] [m] 


 

 
 -0-0-0-0-0-0-0-0-4-4-4------------------------|
 -0-0-0-0-0-0-0-0-5-5-5-4-4-4-4-4--------------|
 -1-1-1-1-1-1-1-1-6-6-6-4-4-4-4-4--------------|
 -2-2-2-2-2-2-2-2-6-6-6-4-4-4-4-4--------------| 4 times
 -2-2-2-2-2-2-2-2-4-4-4-2-2-2-2-2--------------|
 -0-0-0-0-0-0-0-0------------------------------|
 d---------------------------------------------|o-do-do do-do-do do-do-do, yeah that part.


Important: The song above is NOT stored on the Chordie server. The original song is hosted at www.guitartabs.cc. Chordie works as a search engine and provides on-the-fly formatting. Chordie does not index songs against artists'/composers' will. To remove this song please click here.

This song is displayed as text-only. Transposing and tuning is only available for chordpro-songs.
Rate #1 of 2 versions

Login - add to songbook

SHARE PAGE  




You need to log in to post comments