Guitar Tabs, Chords and Lyrics
Major upgrade!! After one year development the new version of Chordie is now online! Please give feedback.


Sic transit gloriaâ?¦ Glory Fades   Brand New

 
 Bass PLays here ------> guitar does sum dead not thing or sumthin
 D#||-------|------|------|------|------|------|------|-------||
 A#||-------|------|------|------|------|------|------|-------||
 F#||*------|------|------|------|------|------|------|------*||
 C#||*------|------|------|------|------|------|------|------*||
 G#||-------|------|------|------|------|------|------|-------||
 D#||-------|------|------|------|------|------|------|-------||

 


 


 Chorus


 


 

 
 ---------x--x--x--x--||---------------------------|-------------------------|
 ---------x--x--x--x--||---------------------------|-------------------------|
 ---------x--x--x--x--||*--6--6--6--6--6--6--6--6--|-------------------------|
 ---------x--x--x--x--||*--6--6--6--6--6--6--6--6--|--2--2--2--2--2--2--2--2-|
 ---------x--x--x--x--||---4--4--4--4--4--4--4--4--|--2--2--2--2--2--2--2--2-|
 ---------x--x--x--x--||---------------------------|--0--0--0--0--0--0--0--0-|
 --------------------------|------------------------------|
 --------------------------|------------------------------|
 -----4--6--6--6--6--4--6--|--11--11--11--11--9--9--9--9--|
 --7--4--6--6--6--6--4--6--|--11--11--11--11--9--9--9--9--|
 --7--2--4--4--4--4--2--4--|--9---9---9---9---7--7--7--7--|
 --5-----------------------|------------------------------|
 --------------------------|---------------------------||
 --------------------------|---------------------------||
 --------------------------|--------------------------*|| Repeat x 1
 --7--7--7--7--7--7--7--7--|--4--4--4--4--2--2--2--2--*||
 --7--7--7--7--7--7--7--7--|--4--4--4--4--2--2--2--2---||
 --5--5--5--5--5--5--5--5--|--2--2--2--2--0--0--0--0---||
 --------------------------|
 --------------------------|
 --------------------------|
 --4--4--4--4--x--x--x--x--|
 --4--4--4--4--x--x--x--x--|
 --2--2--2--2--x--x--x--x--|

 


 BRIDGE...gtr 1 rings out while bass goes


 


 

 
 -------------------|------------------|
 -------------------|------------------|
 --6----------------|------------------| [[Guitar 2 part is at the bottom of
 --6----------------|------------------| the tab, it starts here]]
 --4----------------|------------------|
 -------------------|------------------|
 ------------------|------------------|-------------------|-----------------|
 ------------------|------------------|-------------------|-----------------|
 ------------------|------------------|--6----------------|-----------------|
 ------------------|------------------|--6----------------|-----------------|
 ------------------|------------------|--4----------------|-----------------|
 ------------------|------------------|-------------------|-----------------|

 


 


 Joins the bass


 


 

 
 --------------------------|--------------------------|---------------------|
 --------------------------|--------------------------|---------------------|
 --9--9--9--9--9--9--9--9--|--9--9--9--9--9--9--9--9--|--6----6--2----2--2--|
 --9--9--9--9--9--9--9--9--|--9--9--9--9--9--9--9--9--|--6----6--2----2--2--|
 --7--7--7--7--7--7--7--7--|--7--7--7--7--7--7--7--7--|--4----4--0----0--0--|
 --------------------------|--------------------------|---------------------|
 -----------------------|-----------------------|-----------------------|
 -----------------------|-----------------------|-----------------------|
 --6----6--2----2--2----|-----------------------|-----------------------|
 --6----6--2----2--2----|--4----4--2----2--2----|--4----4--2----2--2----|
 --4----4--0----0--0----|--4----4--2----2--2----|--4----4--2----2--2----|
 -----------------------|--2----2--0----0--0----|--2----2--0----0--0----|
 -----------------------|-----------------------|--------------------------|
 -----------------------|-----------------------|--------------------------|
 --6----6--2----2--2----|--6----6--2----2--2----|--9--9--9--9--9--9--9--9--|
 --6----6--2----2--2----|--6----6--2----2--2----|--9--9--9--9--9--9--9--9--|
 --4----4--0----0--0----|--4----4--0----0--0----|--7--7--7--7--7--7--7--7--|
 -----------------------|-----------------------|--------------------------|
 --------------------------||
 --------------------------||
 --9--9--9--9--9--9--9--9--||
 --9--9--9--9--9--9--9--9--||
 --7--7--7--7--7--7--7--7--||
 --------------------------||

 


 


 _______________________________________________________________________


 brand new - guitar 2


 this is played from the beginning of the bridge!


 


 

 
 |-------------------------|
 |--5----4-----4-----4-----|
 |----------4-----4-----4--|
 |-------------------------|
 |-------------------------|
 -------------------------|-------------------------|-----------------------|
 --5----4-----4-----4-----|--5----4-----4-----4-----|--5----7--5--4----4----|
 ----------4-----4-----4--|----------4-----4-----4--|----------------4----4-|
 -------------------------|-------------------------|-----------------------|
 -------------------------|-------------------------|-----------------------|
 -------------------------|-------------------------|-----------------------|
 -------------------------|-------------------------|-----------------------|
 --5----4-----4-----4-----|--5----4-----4-----4-----|--5----4-----4-----4---|
 ----------4-----4-----4--|----------4-----4-----4--|----------4-----4-----4|
 -------------------------|-------------------------|-----------------------|
 -------------------------|-------------------------|-----------------------|
 -------------------------|-------------------------|-----------------------|
 -------------------------|-------------------------|-----------------------|
 --5----7--5--4-----4-----|--5----4-----4-----4-----|--5----4-----4-----4---|
 ----------------4-----4--|----------4-----4-----4--|----------4-----4-----4|
 -------------------------|-------------------------|-----------------------|
 -------------------------|-------------------------|-----------------------|
 -------------------------|-------------------------|-----------------------|
 -------------------------|-------------------------|-----------------------|
 --5----4-----4-----4-----|--5----7--5--4-----4-----|--5----4-----4-----4---|
 ----------4-----4-----4--|----------------4-----4--|----------4-----4-----4|
 -------------------------|-------------------------|-----------------------|
 -------------------------|-------------------------|-----------------------|
 -------------------------|-------------------------|-----------------------|
 -------------------------|-------------------------|------------------------||
 --5----4-----4-----4-----|--5----4-----4-----4-----|--5----7--5--4-----4----||
 ----------4-----4-----4--|----------4-----4-----4--|----------------4-----4-||
 -------------------------|-------------------------|------------------------||
 -------------------------|-------------------------|------------------------||
 -------------------------|-------------------------|------------------------||


Important: The song above is NOT stored on the Chordie server. The original song is hosted at www.guitartabs.cc. Chordie works as a search engine and provides on-the-fly formatting. Chordie does not index songs against artists'/composers' will. To remove this song please click here.

This song is displayed as text-only. Transposing and tuning is only available for chordpro-songs.
Rate #1 of 1 versions

Login - add to songbook

SHARE PAGE  




You need to log in to post comments