Guitar Tabs, Chords and Lyrics
Update 25:10. 13:00. Site is back up running again. Songbooks are recovered. Woring on getting search back up..


Shadow on the Wall  Brandi Carlile

 
 -------------------------------------------------------------------------------

SHADOW ON THE WALL Brandi Carlile
 
 -------------------------------------------------------------------------------

Tabbed by: Steph
Email: cdashber@gmail.com
Standard Tuning
Capo 4
Intro:
[Bm] [Bm/A]  
 
 e|---------------------------------------------------2-0-----------|
 B|-------3-------------3-5-3-----------3-----------3-----3---------|
 G|-----4-------------4-------4-------4-----------4---------4-------|
 D|---4-----4---4---4-----------4---4-----4---4---------------4-----|
 A|-2---------2---2---------------0---------0---0-------------------|
 E|-----------------------------------------------------------------|

[Bm/G] [Bm/E] [Bm/F#] [Bm/G] [Bm/A]  
 
 e|----------------------------------------------------------|
 B|-------3-------------3-5-3-----------3-------------3------|
 G|-----4-------------4-------4-------4-------------4--------|
 D|---4-----4---4---4-----------4---4-----4---4---4----------|
 A|-------------------------------------------------------0--|
 E|-3---------3---3---------------0---------0---2-------3----|

Verse:
[Bm] [Bm/A]  
 
 e|----------------------------------------------------------|
 B|-------3-------------3-------------3-------------3--------|
 G|-----4-------------4-------------4-------------4----------|
 D|---4-----4---4---4-----4---4---4-----4---4---4-----4---4--|
 A|-2---------2---2---------2---0---------0---0---------0----|
 E|----------------------------------------------------------| 

Gone. . . Wrong. . .
[Bm/G] [Bm/E] [Bm/F#] [Bm/G] [Bm/A]  
 
 e|---------------------------------------------------------|
 B|-------3-------------3-------------3-------------3-------|
 G|-----4-------------4-------------4-------------4---------|
 D|---4-----4---4---4-----4---4---4-----4---4---4-----------|
 A|------------------------------------------------------0--|
 E|-3---------3---3---------3---0---------0---2--------3----|

Strong. . . Gone. . .
[Bm] [Bm/A]  
 
 e|-------------------------------------------------2-0------|
 B|-------3-------------3-------------3-----------3-----3----|
 G|-----4-------------4-------------4-----------4---------4--|
 D|---4-----4---4---4-----4---4---4-----4---4----------------|
 A|-2---------2---2---------2---0---------0---0--------------|
 E|----------------------------------------------------------|

Still. . . Me. . .
[Bm/G] [Bm/E] [Bm/F#] [Bm/G]  
 
 e|-----------------------------------------------------------|
 B|-------3-------------3-------------3-------------3-------3-|
 G|-----4-------------4-------------4-------------4-------4---|
 D|---4-----4---4---4-----4---4---4-----4---4---4-------4-----|
 A|-----------------------------------------------------------|
 E|-3---------3---3---------3---0---------0---2-------3-------|

See. . . Down. . .
( Tab from: http://www.guitartabs.cc/tabs/b/brandi_carlile/shadow_on_the_wall_tab.html )
Prechorus:
[Am] [G] [D] [G]  
 
 e|---------------------------------2-------------------------|
 B|-------3-----------------------3-------------3-------------|
 G|-----2-------------2-----0---2-----2---2---2-------0-------|
 D|---2-----2---2---2-----0---0---------0---0-------0---------|
 A|-0---------0---0-------------------------------------------|
 E|---------------------3-------------------------3-----------|

Down. . . Be. . .
[Am] [G] [D] [G]  
 
 e|---------------------------------2h3--3-----------|
 B|-------3-----------------------3------3-----------|
 G|-----2-------------2-----0---2--------0-----------|
 D|---2-----2---2---2-----0---0----------0-----------|
 A|-0---------0---0----------------------2-----------|
 E|---------------------3----------------3-----------|

Fool. . .
Chorus:
[Bm] [D]  
 
 e|-----------------------------------2-------------2--------|
 B|-------3-------------3-----------3-------------3----------|
 G|-----4-------------4-----------2-----2---2---2-----2---2--|
 D|---4-----4---4---4-----4---4-0---------0---0---------0----|
 A|-2---------2---2---------2--------------------------------|
 E|----------------------------------------------------------|

How. . . Be. . .
[G] [D] [D/C#] [Bm]  
 
 e|------------------------------2---------------------------|
 B|-------3------------3-------3----------3---------3--------|
 G|-----0------------0-------2----------2---------4----------|
 D|---0-----0------0-------0----------0---------4-----4---4--|
 A|---------------------------------4-------4-2---------2----|
 E|-3---------3--3-------3-----------------------------------|

On. . . Make no Sound at All
[D] [G]  
 
 e|---------------------2-------------2-----------------------------|
 B|-------3-----------3-------------3---------------3-----------3---|
 G|-----4-----------2-----2---2---2-----2---2-----0-----------0-----|
 D|---4-----4---4-0---------0---0---------0-----0-----0-----0-------|
 A|-2---------2-----------------------------------------------------|
 E|-------------------------------------------3---------3-3-------3-|

Down. . . On. . .
[D] [D/C#] [Bm] [Bm/A]  
 
 e|-------2-----------------------------------------------------|
 B|-----3----------3---------3----------3---------3---------3---|
 G|---2----------2---------4----------4---------4---------4-----|
 D|-0----------0---------4----------4---------4---------4-------|
 A|----------4-------4-2--------2-0-------0---------------------|
 E|-----------------------------------------3-------3-3-------3-|

Not be Seen at All
[Bm] [B+]  
 
 e|-------2-----2--------|
 B|-----3---3---5--------|
 G|---4-------4-2--------|
 D|-4-----------4--------|
 A|----------------------|
 E|----------------------|

Structure+Lyrics:
Intro
Verse:
Gone, it's hard for me to say when I'm wrong
It's hard for me to weep when I'm strong
But I can never sleep when you're gone
Oh, but still, if you are gonna crucify me
I wouldn't want nobody to see
'Cause you could kick me hard when I'm down
Down, down, down
Prechorus:
I don't want to be nobody's fool
I've played that part so many times before
Chorus:
How I long to be a shadow on the wall
I will make no sound at all
And when the sun goes down
The shadow on the wall cannot be seen at all
At all
Verse:
Oh friend, it's not that you would mess with my head
I believe that you believe what you said
You think you know me best and you care
But that's not fair
'Cause I don't really want to be seen
It must've been the way I was raised
To sleep with one eye open I'd say
Hey, hey, hey
Prechorus:
I don't want to be nobody's fool
I've played that part so many times before
Chorus:
How I long to be a shadow on the wall
I will make no sound at all
And when the sun goes down
The shadow on the wall cannot be seen at all
At all
Chorus:
Oh how I long to be a shadow on the wall
I will make no sound at all
At all

Important: The song above is NOT stored on the Chordie server. The original song is hosted at www.guitartabs.cc. Chordie works as a search engine and provides on-the-fly formatting. Chordie does not index songs against artists'/composers' will. To remove this song please click here.

Text color:
Chord color:
Chord grids: 
Font size:    
Page size: 

Am B+ Bm Bm/A Bm/E Bm/F# D D/C# G
Rate #1 of 8 versions

Login - add to songbook

SHARE PAGE  




You need to log in to post comments