Guitar Tabs, Chords and Lyrics
Major upgrade!! After one year development the new version of Chordie is now online! Please give feedback.


Away   Breaking Benjamin

 
 -------------------------------------------------------------------------------

 


 Away - Breaking Benjamin


 

 
 -------------------------------------------------------------------------------

 


 Tabbed by: Daniel_Arcturus


 Email: blue-delta5@hotmail.com


 


 Tuning: Drop C (CGCFAD from low to high) for rhythm,


 D tuning (DGCFAD from low to high) for lead.


 


 | / slide up


 | \ slide down


 | h hammer-on


 | p pull-off


 | ~ vibrato


 | + harmonic


 | x Mute note


 | = Continous strumming


 


 INTRO & VERSE 1


 


 Ben - Intro / Verse


 


 [8 beats......] [4.] [4..] Repeat


 

 
 D|---0---------0---0----|---0---------0---0----|
 A|---0---------0---3----|---0---------0---3----|
 F|---0---------0---2----|---0---------0---2----|
 C|---2---------2---0----|---2---------2---0----|
 G|---2---------3---0----|---2---------3---0----|
 C|---2------------------|---2-------------0----|

 


 


 


 Ben - Verse


 


 [8 beats................] [8 beats..............] 


 

 
 D|-0----------------------0-----------0--------|
 A|-0----------------------0-----------3--------|
 F|-0----------------------0-----------2--------|
 C|-2----------------------2-----------0--------|
 G|-2----------------------3-----------0--------|
 C|-2----------------------------------0--------|

 


 


 [8 beats................] [8 beats.............] 


 

 
 D|-0----------0-----------0-----------0--------|
 A|-0----------3-----------0-----------3--------|
 F|-0----------4-----------0-----------2--------|
 C|-2----------4-----------2-----------0--------|
 G|-2----------2-----------3-----------0--------|
 C|-2----------------------------------0--------|

 


 


 Played 3 times.. Pre-Chorus


 

 
 D|-0-0-x---0-0-x----|--0-----|
 A|-0-0-x---0-0-x----|--0-----|
 F|-0-0-x---0-0-x----|--0-----|
 C|-2-2-x---2-2-x----|--2-----|
 G|-2-2-x---2-2-x----|--2-----|
 C|-2-2-x---2-2-x----|--2-----|

 


 


 


 Aaron - Intro / Verse


 


 [8 beats...] [4.] [4..] [8 beats.........] [8 beats] 


 

 
 D|---0---------0---0----|---0-----0-----3---2--|
 A|---0---------0---3----|---x-----x-----1---3--|
 F|---0---------0---2----|---9---7/9-----0---2--|
 C|---2---------2---0----|---x---x/x-----2---0--|
 G|---2---------3--------|---7---5/7-----3---0--|
 D|---0------------------|---0-----0------------|

 


 ^Play along with Ben^


 


 Aaron - Verse


 


 * Mute after each stroke.


 

 
 D|-----7-| Listen to the song and you'll
 A|----8--| know where to play them.
 F|---9---|
 C|--9----|
 G|-7-----|
 D|-------|

 


 


 [4 beats] [4 beats] [4 beats] [4 beats] 


 

 
 D|---7--------5---------3---------5------|
 A|---8--------7---------5---------7------|
 F|---9--------7---------5---------7------|
 C|---9--------7---------5---------7------|
 G|---7--------5---------3---------5------|
 D|---------------------------------------|

 


 


 ALTERNATIVE ============================


 

 
 D|---7--------7---------3---------5---|
 A|---8--------7---------5---------7---|
 F|---9--------7---------5---------7---|
 C|---9--------7---------5---------7---|
 G|---7--------5---------3---------5---|
 D|------------------------------------|

 


 ========================================


 


 Played 3 times.


 

 
 D|--7-7-x---7-7-x--|
 A|--8-8-x---8-8-x--|
 F|--9-9-x---9-9-x--|
 C|--9-9-x---9-9-x--|
 G|--7-7-x---7-7-x--|
 D|-----------------|

 


 


 Pre-Chorus


 

 
 D|-----------------|
 A|-----------------|

 


 F|--9/11/12/14/16--|


 

 
 C|--x-x--x--x--x---|

 


 G|--7/9 /10/12/14--|


 

 
 D|-----------------|

 


 


 CHORUS


 


 


 Ben


 [4 beats...] [4 beats] 


 

 
 D|--0----------3---2---|
 A|--1----------3---3---|
 F|--0----------0---2---|
 C|--2----------0---0---|
 G|--3----------2---0---|
 C|-----------------0---|

 


 


 Aaron


 [4 beats...] [4 beats] 


 

 
 D|--0----------3---2---|
 A|--1----------3---3---|
 F|--0----------0---2---|
 C|--2----------0---0---|
 G|--3----------2---0---|
 D|-------------3-------|

 


 


 VERSE 2


 


 Repeat the verse parts.


 


 


 BRIDGE


 


 Ben


 [8 beats... ] 


 

 
 D|----------------------------------------------|
 A|----------------------------------------------|
 F|----------------------------------------------| Played 3 times.
 C|----------------------------------------------|
 G|--0-2-0-2--5--0-2-x-x--0-2-0-2--5--0--5--0----|
 C|--0-2-0-2--5--0-2-x-x--0-2-0-2--5--0--5--0----|

 


 


 Aaron's solo


 Faint... clear...


 

 
 D|-0=====0======--0--0-0-0--0--0-0-0--0--0-0-0-0-0--|
 A|-------5======--5--8-7-8--5--8-7-5--5--8-7-8-5-5--|
 F|---------------------------------7-----------7----|
 C|--------------------------------------------------|
 G|--------------------------------------------------|
 D|--------------------------------------------------|
 D|-0--0-0-0--0--0-0-0--0-3-3-5-5/7-7---|
 A|-5--8-7-8--5--8-7-5--5-5-5-7-7/8-8---|
 F|------------------7------------------|
 C|-------------------------------------|
 G|-------------------------------------|
 D|-------------------------------------|

 


 


 


 OUTRO


 


 Ben


 [8 beats... ] 


 

 
 D|--------------------------------|
 A|--------------------------------|
 F|--------------------------------| Played 4 times, but let the 2's ring
 C|-----------5--x-------------x---| on the last one.
 G|--2--5--0--3--x---5--3-0-2--x---|
 C|--2--5--0-----x---5--3-0-2--x---|

 


 


 Aaron


 [8 beats... ] 


 

 
 D|----------------------------------|
 A|----------------------------------|
 F|--9---12--7--5--x--12--10-7/9--x--| Player 4 times, and as above, let it
 C|--x---x---x--x--x--x---x--x-x--x--| ring on the last one.
 G|--7---10--5--3--x--10--8--5/7--x--|
 D|----------------x--------------x--|


Important: The song above is NOT stored on the Chordie server. The original song is hosted at www.guitartabs.cc. Chordie works as a search engine and provides on-the-fly formatting. Chordie does not index songs against artists'/composers' will. To remove this song please click here.

This song is displayed as text-only. Transposing and tuning is only available for chordpro-songs.
Rate #0 of 3 versions

Jango Player

Login - add to songbook

SHARE PAGE  




You need to log in to post comments