Guitar Tabs, Chords and Lyrics
Server problems seems to be fixed. Chordie has been experiencing problems with songs disappearing. These issues now seems to be fixed, but still verifying the fix. If you find anything strange, please email admin@chordie.com.


Straight Up and Down  The Brian Jonestown Massacre

Chords used (E-A-D-G-B-E)
 
 D (x-x-0-2-3-2)-----|
 Dsus? (x-x-0-2-3-0)-|
 G (3-2-0-0-0-3)-----|
 Gsus4 (3-2-0-0-1-3)-|
 C (0-3-2-0-1-0)-----|
 A (0-0-2-2-2-0)-----|

(throw in a Dsus and Gsus every once and a while)
Intro: D Dsus? G Gsus4
 
 e----------------------------------------------------------|
 B----------------------------------------------------------|
 G--7-5---------------------------------------5-5h7-7-7p5---|
 D------5h7-7-7---5-3-----------3-3---3h5/7-----------------|
 A-5------------------3h5-5-5-------5-----------------------|
 E--------------3-------------------------------------------|
 e----------------------------------------------------------|
 B-------------------------------------------8^-6^----------|
 G---7-5-------------------------7-5---------------5h7-7----|
 D-------5h7-7-7---5-3---------------5-7-7------------------|
 A-5-------------------3-3h5-5-5----------------------------|
 E---------------3------------------------------------------|

[D]i try to[G] see well i guess that i'm blin[D]d[G]
[D]it's fine with m[G]e cause i'm going to keep[D] trying[G]
[D]and i've made disa[G]pointment my very best fri[D]end[G]
[D]i wait and see[G] who your going to be a[D]nd when[G]
[D]we don't want you [C]be yourself
you [G]see
we want you to fr[D]ee yourself
it [D]does no good to pre[C]tend that you are f[G]ree
i can not see[D] you
i love you but it d[C]rags me down
[D]cause i know it so w[G]ell
[D] how i never could t[G]ell
who's my very best fr[D]iend?[G]
how i know you so w[D]ell[G]
who's my very best fr[D]iend?[G]
how i know you so w[D]ell[G]
i could make you be me.
[D] [G] [A] [G] 
I [G]spn[A]et [G]all the money i had just to treat you real fine
[D] [G] [A] [G] 
you [D]know[G] i[A] w[G]ill get what i want, while im getting whats mine
[D] [G] [A] [G]  
i see[G] yo[A]u k[G]now no shame you wont give me the chance
[D] [G] [A] [G] 
im be[D]gging [G]your momma and your daddy just to give me the chance
[A]im ge[G]tting nothing

Important: The song above is NOT stored on the Chordie server. The original song is hosted at www.guitartabs.cc. Chordie works as a search engine and provides on-the-fly formatting. Chordie does not index songs against artists'/composers' will. To remove this song please click here.

Text color:
Chord color:
Chord grids: 
Font size:    
Page size: 

A C D G
Rate #1 of 5 versions

Login - add to songbook

SHARE PAGE  




You need to log in to post comments