Guitar Tabs, Chords and Lyrics
Server problems seems to be fixed. Chordie has been experiencing problems with songs disappearing. These issues now seems to be fixed, but still verifying the fix. If you find anything strange, please email admin@chordie.com.


Vacuum Boots  The Brian Jonestown Massacre

Chords used (E-A-D-G-B-E)
Bb (6-8-8-7-6-6)
D# (6-6-8-8-8-6)
[C#] [(4-4-6-6-6-4)]  
[G#] [(4-6-6-5-4-4)]  
[F#] [(2-4-4-3-2-2)]  
Intro (& End) chords: Bb D# C# G# D#
[Bb] [D#] [C#] [G#] [D#] [Bb] [D#] [C#] [G#] [D#]  
 
 e------------------------------------------------------------------------------|--------|
 B------------------------------------------------------------------------------|--------|
 G-3-3-3h5------------------3---------------3h5-3-3-3---------------------------|--------| x2
 D---------6--6-6-6-6-3-6-3--6-6-6-6-6-6--------------6-5-5-5-5-3-5-5/6-6-6-6-6-|-3h5-3--|
 A------------------------------------------------------------------------------|--------|
 E------------------------------------------------------------------------------|--------|

( Tab from: http://www.guitartabs.cc/tabs/b/brian_jonestown_massacre/vacuum_boots_tab.html )
then
[D#] [Bb]  
 
 e------------|
 B-9-8--------|
 G----8-7-----|
 D--------7---|
 A------------|
 E------------|
 most Bbs are played like this: e-6----6-6-6-6---|
 (move your pinky to the B-6----6-6-6-6---|
 G String) G-7----8-7-8-7---|
 D-8----6-8-6-8---|
 A-8----8-8-8-8---|
 E-6----6-6-6-6---|

[Bb]  
Your [F#]beautiful and i [D#]wish that you could [Bb]see
and [F#]stay the same as [D#]you have always be[Bb]en
oo cause you're [F#]wonderful[D#] [Bb]
you [F#]live in a lie cause it [D#]makes you happy
you [F#]do what you like if you [D#]want you can ask me
[Bb] [D#] [C#] [G#] 
w[D#]hat i k[D#]now is i never know nothing so i know that i need to learn
[Bb]where to [D#]go ohh[C#] [G#] [D#] [D#] [Bb]

Important: The song above is NOT stored on the Chordie server. The original song is hosted at www.guitartabs.cc. Chordie works as a search engine and provides on-the-fly formatting. Chordie does not index songs against artists'/composers' will. To remove this song please click here.

Text color:
Chord color:
Chord grids: 
Font size:    
Page size: 

Bb C# D# F# G#
Rate #1 of 6 versions

Jango Player

Login - add to songbook

SHARE PAGE  



You need to log in to post comments