Guitar Tabs, Chords and Lyrics
Server problems seems to be fixed. Chordie has been experiencing problems with songs disappearing. These issues now seems to be fixed, but still verifying the fix. If you find anything strange, please email admin@chordie.com.


Alle Mann  Brings

Die Gitarren sind einen Halbton tiefer gestimmt!
Intro
[G] [D] [G]  
 
 1:----------------------------------------------------------------------|
 2:----------------------------------------------------------------------|
 3:-7-6-7------------------7---------------------------------------------|
 4:-------9-7-9-5-4-5----9---10-9-10~-10-9-10-7-6-7----------7-10-9-7-9~-|
 5:-------------------5~----------------------------9-8-9----------------|
 6:-------------------------------------------------------10-------------|

[C] [G]  
 
 1:-------------------------------------------------------------|
 2:----------------------------5~-------------------------------|
 3:-7-6-7---------------4~-5-7----9-9-9-9-9-7/9----7-7-7-7------|
 4:-------9-7-9-5-4-5---------------------------10---------10-9-|
 5:-------------------5~----------------------------------------|
 6:-------------------------------------------------------------|

[D] [G] [C] [G] [D]  
 
 1:----------------------------------------------------------------|
 2:----------------------------------------------------------------|
 3:------------------7~-9-9-9~-7/9/7----7-7-7-7-7------------------|
 4:-10-10-10-10-9-10-----------------10-----------10-9-10-10-10-10-|
 5:----------------------------------------------------------------|
 6:----------------------------------------------------------------|

[G] [D#]  
 
 1:-------------|
 2:-------------|
 3:-------------|
 4:-9-7/9/7-----|
 5:---------10~-|
 6:-------------|

1. Strophe
e C
Jetz jeiht d´r Daach ze Engk, jetz kütt die schönste Zick
[G] treck dich flöck öm, mer [D]maache hück op schick[D#]
e C
Mer han su lang jewaad, noch es et nit ze spät,
am [A]Engk, do kütt et nor drop an, [D]wat mer wirklich mäht.
Refrain
Alle [G]Mann nix wie ran, denn mer han jo nix mieh ze ver[D]liere,
alle Mann nix wie ran, denn mer han jo immer ne Jrund ze [G]fiere.
Alle Mann nix wie ran, denn mer han jo uns Schuldigkeit je[C]donn
un keiner kann jet sage, wenn zwei [G]Minsche sich verdrage,
die met [D]beidste Bein em Lääve [G]ston,
[C]keiner kann jet sage, wenn zwei [G]Minsche sich verdrage,
die met [D]beidste Bein em Lääve [G]ston.[D#]
2. Strophe
e C
Nemm all ding Sorje fott un klopp se in die Tonn,
[G] schenk mir die Laache un [D]loss uns endlich jon.[D#]
e C
Die Stadt es voll vun Lääve, se hät op uns jewaad,
[A]ich will nix verpasse, nä [D]dat wör doch wirklich schaad.
Refrain
( Tab from: http://www.guitartabs.cc/tabs/b/brings/alle_mann_tab.html )
Alle [G]Mann nix wie ran, denn mer han jo nix mieh ze ver[D]liere,
alle Mann nix wie ran, denn mer han jo immer ne Jrund ze [G]fiere.
Alle Mann nix wie ran, denn mer han jo uns Schuldigkeit je[C]donn
un keiner kann jet sage, wenn zwei [G]Minsche sich verdrage,
die met [D]beidste Bein em Lääve [G]ston,
[C]keiner kann jet sage, wenn zwei [G]Minsche sich verdrage,
D G D# Riff 1
die met beidste Bein em Lääve ston.
Riff 1
[G] [D] [D#]  
 
 1:---------------------------------|
 2:---------------------------------|
 3:-7-6-7---------------------------|
 4:-------9-7-9-5-4-5---------------|
 5:-------------------5~--5~-7-8-9~-|
 6:---------------------------------|

3. Strophe
e C
Dat wor en lange Naach, mer zwei han vill jelaach,
[G] üvver d´r Rhing, da [D]krüff ne neue Daach.[D#]
e C
Su möht et immer sin, doch ich sag immer hin
[A]han mer zwei jeliehrt, et [D]Lääve hätt ene Sinn.
Refrain
Alle [G]Mann nix wie ran, denn mer han jo nix mieh ze ver[D]liere,
alle Mann nix wie ran, denn mer han jo immer ne Jrund ze [G]fiere.
Alle Mann nix wie ran, denn mer han jo uns Schuldigkeit je[C]donn
un keiner kann jet sage, wenn zwei [G]Minsche sich verdrage,
die met [D]beidste Bein em Lääve [G]ston,
[C]keiner kann jet sage, wenn zwei [G]Minsche sich verdrage,
die met [D]beidste Bein em Lääve [G]ston.[D]
Alle [G]Mann nix wie ran, denn mer han jo nix mieh ze ver[D]liere,
alle Mann nix wie ran, denn mer han jo immer ne Jrund ze [G]fiere.
Alle Mann nix wie ran, denn mer han jo uns Schuldigkeit je[C]donn
un keiner kann jet sage, wenn zwei [G]Minsche sich verdrage,
die met [D]beidste Bein em Lääve [G]ston,
[C]keiner kann jet sage, wenn zwei [G]Minsche sich verdrage,
die met [D]beidste Bein em Lääve [G]ston.
Alle [G]Mann nix wie ran, denn mer han jo nix mieh ze ver[D]liere,
alle Mann nix wie ran, denn mer han jo immer ne Jrund ze [G]fiere.
Alle Mann nix wie ran, denn mer han jo uns Schuldigkeit je[C]donn
un keiner kann jet sage, wenn zwei [G]Minsche sich verdrage,
die met [D]beidste Bein em Lääve [G]ston,
[C]keiner kann jet sage, wenn zwei [G]Minsche sich verdrage,
die met [D]beidste Bein em Lääve [G]ston,
[C]keiner kann jet sage, wenn zwei [G]Minsche sich verdrage,
die met [D]beidste Bein em Lääve ston.[D] [G]
 
 ------------------------------------------------------

Mehr BRINGS-Tabs auf brings-tabs.de.vu!
 
 ------------------------------------------------------


Important: The song above is NOT stored on the Chordie server. The original song is hosted at www.guitartabs.cc. Chordie works as a search engine and provides on-the-fly formatting. Chordie does not index songs against artists'/composers' will. To remove this song please click here.

Text color:
Chord color:
Chord grids: 
Font size:    
Page size: 

A C D D# G
Rate #1 of 4 versions

Jango Player

Login - add to songbook

SHARE PAGE  



You need to log in to post comments