Guitar Tabs, Chords and Lyrics
Server problems seems to be fixed. Chordie has been experiencing problems with songs disappearing. These issues now seems to be fixed, but still verifying the fix. If you find anything strange, please email admin@chordie.com.


Van Rides And High Tides  Broadway Calls

Chords:
[B] [G#] [E] [F#] [C#]  
 
 e/------------------------|
 b/------------------------|
 g/-4---------------6------|
 d/-4---6---2---4---6------|
 a/-2---6---2---4---4------|
 E/-----4---0---2----------|

Intro:
 
 e/---------------------------------------------------------------------------|
 b/---------------------------------------------------------------------------|
 g/--4----------------------------------------------------------4---6---8---6-|
 d/--4---4-6--4-4-6--4---2----2-1----2-1------------------------x---x---x---x-|
 a/--2-------------------2---------2------2-2-4-6---4-6-7---6-4-2---4---6---4-|
 E/----------------------0----------------------------------------------------|

*Fill1*:
 
 e/-----------------|
 b/-----------------|
 g/----4--6--8--6---|
 d/----x--x--x--x---|
 a/----2--4--6--4---|
 E/-----------------|

*Fill2*:
 
 e/-----------------|
 b/-----------------|
 g/----4---6---8----|
 d/----x---x---x----|
 a/----2---4---6----|
 E/-----------------|

Vers:
I've got a pl[B]an, I've got it dripping down my forehead In the
s[G#]hape of a bead of sweat.
How sweet would my l[E]ife be If I wrote the
F# *Fill1*
songs the kids could not forget?
I jump the g[B]un again, I call you up and tell you
how talented [G#]I think I am.
The things I write will change the w[E]orld And I
F# *Fill1*
will take you along for the ride.
But this s[E]elf apprecia[F#]tion is l[B]ame.
E F# *Fill2*
It's not charming or cute anymore.
[E]Who am I ki[F#]dding, we're sl[B]eeping on fl[G#]oors
And the [E]summer's almost o[F#]ver.
Chorus:
[B]At the expense of my new f[E]riends, This summer's almost over.
 
 PM---------------------------------------------------------

B E F#(let ring)
My heart beats faster every night. Please let this last forever.
 
 --------------------------------------------------

Vers:
This is the inform[B]ation age.
I've got the age but where the fuck is my i[G#]nfo!
I know 24 isn't old, b[E]ut I feel,
F# *Fill1*
That I am about to expire.
I jump the gun a[B]gain, I call you up and tell you
how talented [G#]I think I am.
The things I write will change the w[E]orld And I
F# *Fill1*
will take you along for the ride.
But this s[E]elf appreci[F#]ation is l[B]ame.
E F# *Fill2*
It's not charming or cute anymore.
[E]Who am I k[F#]idding, we're sle[B]eping on fl[G#]oors
And the s[E]ummer's almost o[F#]ver.
Chorus(2x):
[B]At the expense of my new fr[E]iends, This summers almost over.
 
 PM--------------------------------------------------------

[B]My heart beats faster every n[E]ight. Please let this l[F#]ast forever.
 
 ---------------------------------------------------------------

Chorus´(2x):
[C#]At the expense of my new f[F#]riends, This summers almost over.
[C#]My heart beats faster every [F#]night. Please let this l[G#]ast forever.
[F#] [G#] [C#] 

Important: The song above is NOT stored on the Chordie server. The original song is hosted at www.guitartabs.cc. Chordie works as a search engine and provides on-the-fly formatting. Chordie does not index songs against artists'/composers' will. To remove this song please click here.

Text color:
Chord color:
Chord grids: 
Font size:    
Page size: 

B C# E F# G#
Rate #1 of 2 versions

Login - add to songbook

SHARE PAGE  




You need to log in to post comments