Guitar Tabs, Chords and Lyrics
Server problems seems to be fixed. Chordie has been experiencing problems with songs disappearing. These issues now seems to be fixed, but still verifying the fix. If you find anything strange, please email admin@chordie.com.


Betty  Brooke Fraser

 
 -------------------------------------------------------------------------------

BETTY - Brooke Fraser
 
 -------------------------------------------------------------------------------

Tabbed by: Jannah
Tuning: Standard
Capo 8
Intro
 
 E|----------------2------2------2----|
 B|--0--------0-----------------------|
 G|-------0---------------------------| x2 + Verse 1
 D|--0-----------------0------0-------|
 A|-----------------------------------|
 E|-----------------------------------|

in the shape of Canada[A]...
that you [Em]try to keep a secret
 
 E|----------------2------2------2----|
 B|--0--------0-----------------------|
 G|-------0---------------------------|
 D|--0-----------------0------0-------| x2 + Verse 2
 A|-----------------------------------|
 E|-----------------------------------|

before they wander of[A]f...
to [Em]hide inside their sockets[Bm]
(Chorus) - DOWN STRUM
[G] You've got your scars and
[A] You've got your birthmarks
[G] You've got Toronto [A]hiding on your [Em]hip, honey
[G] You've got your secrets
[A] You've got your regrets
[G]Darling, we [A]all do
 
 E|----------------2------2------2----|
 B|--0--------0-----------------------|
 G|-------0---------------------------| x2 + Verse 3
 D|--0-----------------0------0-------|
 A|-----------------------------------|
 E|-----------------------------------|

If a wife at [A]all, it's a[Em] silly institutio[Bm]n
or so you keep insisting
(Chorus) - DOWN STRUM
[G] You've got your scars and
[A] You've got your birthmarks
[G] You've got Toronto [A]hiding on your [Em]hip, honey
[G] You've got your secrets
[A] You've got your regrets
[G]Darling, we [A]all do[Em]
(Bridge)
[G] You're cool coy 'bout your [A]strawberry hip
[Bm] It's you that's hidden by the [D]expectations
We [G]want to see you, won't you [A]show us where to [Bm]start
[G] You're talking trash with your [A]replica lips
[D] It's you that tickle in the [Bm]conversation
[G] Sweet Betty won't you [A]show us who you are?
(Chorus) - DOWN STRUM
[G] You've got your scars and
[A] You've got your birthmarks
[G] You've got Toronto [A]hiding on your [Em]hip, honey
[G] You've got your secrets
[A] You've got your regrets
[G]Darling, we [A]all do
 
 E|----------------2------2------2----|
 B|--0--------0-----------------------|
 G|-------0---------------------------|
 D|--0-----------------0------0-------| x2
 A|-----------------------------------|
 E|-----------------------------------|

You got a quick snap lock on your cold, cold heart...
 
 E|----------------2------2------2----|
 B|--0--------0-----------------------|
 G|-------0---------------------------|
 D|--0-----------------0------0-------| x2
 A|-----------------------------------|
 E|-----------------------------------| 


Important: The song above is NOT stored on the Chordie server. The original song is hosted at www.guitartabs.cc. Chordie works as a search engine and provides on-the-fly formatting. Chordie does not index songs against artists'/composers' will. To remove this song please click here.

Text color:
Chord color:
Chord grids: 
Font size:    
Page size: 

A Bm D Em G
Rate #1 of 12 versions

Jango Player

Login - add to songbook

SHARE PAGE  




You need to log in to post comments