Guitar Tabs, Chords and Lyrics
Major upgrade!! After one year development the new version of Chordie is now online! Please give feedback.


Whiskey Do My Talkin'  Brooks & Dunn

DROP D TUNING
RIFF/INTRO
 
 E-------------------------------------------------------------|
 B-------------------------------------------------------------|
 G-------------------------------------------------------------|
 D--2--4-4-2-4--4-2-4-2-4-4-7--7-9-9-7-9--9-7-9-7-7-2-2--------|REPEAT
 A--2--4-4-2-4--4-2-4-2-4-4-7--7-9-9-7-9--9-7-9-7-7-2-2--------|
 D--2--4-4-2-4--4-2-4-2-4-4-7--7-9-9-7-9--9-7-9-7-7-2-2--------|

KEEP PLAYING AND REPEATING RIFF THROUGH WHOLE VERSE
 
 RIFF-----------------------------------

I'm not some come on strong romeo cowboy
no i'm not that type
without a little help
i probably have two left feet
but you're not gonna let that happen tonight
turn up that jukebox, set me at the bar
i promise her the moon
you throw in the stars
(chorus)
[F#]whiskey do my talkin'
say a[E]ll the things i can't
[F#]here's to you my hundred proof friend
go [E]on and so your thing
[F#]she's just a line away from falling
going w[A]ild and honky to[B]nking
F# RIFF
whiskey do my talkin'
if i met her on the street
in the broad day light
i couldn't bring myself to speak, or get a word out right
but you put me in a bar room you put a drink in my hand
i'm a cool, calm, and collected
silver tongue ladies' man
(repeat chorus)
(bridge)
LISTEN TO CD TO GET THE TIMING RIGHT
 
 E---------------------------------------------------------|
 E---------------------------------------------------------|
 G---------------------------------------------------------|
 D-----4---4-4------2--2-2------5---5--5---------2--2-2----|
 A---4---4--------2---2-------5---5-----------2--2---------|
 D-4-----------2------------5----------------2-------------|

oooh I tell her all the things i can
 
 E----------------------------------------------------------------------|
 E----------------------------------------------------------------------|
 G----------------------------------------------------------------------|
 D-----4---4-4----------2-----2--2-----------5---5--5---------2--2-2----|
 A---4---4-----------2-----2---------------5---5-----------2--2---------|
 D-4-------------2-----------------------5----------------2-------------|

heres to you my hundred proof friend go on and do your thing
yeah, she's just a li[F#]ne away from fallin
goin wi[A]ld and honkey to[B]nking
hey
(chorus)
ooh I

Important: The song above is NOT stored on the Chordie server. The original song is hosted at www.guitartabs.cc. Chordie works as a search engine and provides on-the-fly formatting. Chordie does not index songs against artists'/composers' will. To remove this song please click here.

Text color:
Chord color:
Chord grids: 
Font size:    
Page size: 

A B E F#
Rate #2 of 2 versions

Login - add to songbook

SHARE PAGE  



You need to log in to post comments