Guitar Tabs, Chords and Lyrics
Server problems seems to be fixed. Chordie has been experiencing problems with songs disappearing. These issues now seems to be fixed, but still verifying the fix. If you find anything strange, please email admin@chordie.com.


Aggravation Plantation   Brown Brigade

 
 -------------------------------------------------------------------------------

 


 AGGRAVATION PLANTATION - Brown Brigade


 

 
 -------------------------------------------------------------------------------

 


 Tabbed by: robert espeut


 Email: rob_jamaican@hotmail.com


 


 this is my first tab, i play it with the song and it is very accurate.


 just listen to the song for the proper timing. enjoy!


 


 Tuning: Standard EADGBe


 


 Intro


 [-]  

 
 e|-----------------------------------------------------------------------------|
 B|-----------------------------------------------------------------------------|
 G|-------------------------------------5-5-5-----------------------------------|
 D|-5/7-7-777-7\5-7\5-777-7\5-7\5-3-3-3-5-5-5-----------------------------------|
 A|-5/7-7-777-7\5-7\5-777-7\5-7\5-3-3-3-3-3-3-----------------------------------|
 E|-3/5-5-555-5\3-5\3-555-5\3-5\3-1-1-1-----------------------------------------|

 


 pm ... ...


 


 

 
 e|-----------------------------------------------------------------------------|
 B|-----------------------------------------------------------------------------|
 G|-5/7-7-9999-------------------------------------5-5-5------------------------|
 D|-5/7-7-9999-5/7-7-777-7\5-7\5-777-7\5-7\5-3-3-3-5-5-5------------------------|
 A|-3/5-5-7777-5/7-7-777-7\5-7\5-777-7\5-7\5-3-3-3-3-3-3------------------------|
 E|------------3/5-5-555-5\3-5\3-555-5\3-5\3-1-1-1------------------------------|

 


 pm .... ... ...


 


 

 
 e|-----------------------------------------------------------------------------|
 B|-----------------------------------------------------------------------------|
 G|------------------------------------------------5-5-5------------------------| x 2
 D|-5/7-7-7777-5/7-7-777-7\5-7\5-777-7\5-7\5-3-3-3-5-5-5------------------------|
 A|-5/7-7-7777-5/7-7-777-7\5-7\5-777-7\5-7\5-3-3-3-3-3-3------------------------|
 E|-3/5-5-5555-3/5-5-555-5\3-5\3-555-5\3-5\3-1-1-1------------------------------| 

 


 pm .... ... ...


 

 
 e|-----------------------------------------------------------------------------|
 B|-----------------------------------------------------------------------------|
 G|-----------------------------------------------------------------------------|
 D|-5/7-7-7777-77---------------------------------------------------------------|
 A|-5/7-7-7777-77---------------------------------------------------------------|
 E|-3/5-5-5555-55---------------------------------------------------------------|

 


 pm ....


 


 Verse 1


 [-] This decade...


 

 
 e|-----------------------------------------------------------------------------|
 B|-----------------------------------------------------------------------------|
 G|-----------------------------------------------------------------------------|
 D|-5-5-535-5-5-555-5-5-2-5-7-7-777-7-7-----------------------------------------|
 A|-5-5-555-5-5-555-5-5-2-5-7-7-777-7-7--3-4-555-4-3----------------------------|
 E|-3-3-333-3-3-333-3-3-0-3-5-5-555-5-5-5------------5\3------------------------|

 


 pm ... ... ...


 


 misuse of poor..


 

 
 e|-----------------------------------------------------------------------------|
 B|-----------------------------------------------------------------------------|
 G|-----------------------------------------------------------------------------|
 D|-5-5-535-5-5-555-5-5-2-5-7-7-777-7-7-----------------------------------------|
 A|-5-5-555-5-5-555-5-5-2-5-7-7-777-7-7--3-4-555-4-3----------------------------|
 E|-3-3-333-3-3-333-3-3-0-3-5-5-555-5-5-5------------5-3-5----------------------|

 


 pm ... ... ...


 


 

 
 e|-----------------------------------------------------------------------------|
 B|-----------------------------------------------------------------------------|
 G|-----------------------------------------------------------------------------|
 D|-5-5-535-5-5-555-5-5-2-5-7-7-777-7-7-99-10-10-10-----------------------------|
 A|-5-5-555-5-5-555-5-5-2-5-7-7-777-7-7-99-10-10-10-----------------------------|
 E|-3-3-333-3-3-333-3-3-0-3-5-5-555-5-5-77-8--8--8------------------------------|

 


 pm ... ... ...


 


 

 
 e|-----------------------------------------------------------------------------|
 B|-----------------------------------------------------------------------------|
 G|-----------------------------------------------------------------------------|
 D|-5-5-535-5-5-555-5-5-2-5-7-7-777-7-7---------------------3-4-555-4-3---------|
 A|-5-5-555-5-5-555-5-5-2-5-7-7-777-7-7--3-4-555-4-3-------5-----------5-3-5----|
 E|-3-3-333-3-3-333-3-3-0-3-5-5-555-5-5-5------------5-3-5----------------------|

 


 pm ... ... ...


 


 and now we'll only banter...


 

 
 e|-----------------------------------------------------------------------------|
 B|-----------------------------------------------------------------------------|
 G|-----------------------5h7p5-----5h7p7-------------------------5h7p7---------|
 D|----------------------------5h7p7-----------------------------------5h7p7----|
 A|----3-------5-------2----------------------3-------5-------2-----------------|
 E|1-1---1-3-3---3-0-0---0----------------1-1---1-3-3---3-0-0---0---------------|
 e|-----------------------------------------------------------------------------|
 B|-----------------------------------------------------------------------------|
 G|-5h7p5-----------------------------------------------------------------------|
 D|-------------------------------------------------------------22-22-555/7-555/7---|
 A|-----------3-------5-----------------------------3-------5---22-22-535/7-555/7---|
 E|-------1-1---1-3-3---3-0-0-5-0-7-0-8-0-7-0-5-1-1---1-3-3---3-00-00-333/5-333/5---|
 e|-----------------------------------------------------------------------------|
 B|-----------------------------------------------------------------------------|
 G|-------------------------------------5-5-5-----------------------------------|
 D|-5/7-7-777-7\5-7\5-777-7\5-7\5-3-3-3-5-5-5-----------------------------------|
 A|-5/7-7-777-7\5-7\5-777-7\5-7\5-3-3-3-3-3-3-----------------------------------|
 E|-3/5-5-555-5\3-5\3-555-5\3-5\3-1-1-1-----------------------------------------|

 


 pm ... ...


 ( Tab from: http://www.guitartabs.cc/tabs/b/brown_brigade/aggravation_plantation_tab_ver_2.html )


 

 
 e|-----------------------------------------------------------------------------|
 B|-----------------------------------------------------------------------------|
 G|-5/7-7-9999-------------------------------------5-5-5------------------------|
 D|-5/7-7-9999-5/7-7-777-7\5-7\5-777-7\5-7\5-3-3-3-5-5-5------------------------|
 A|-3/5-5-7777-5/7-7-777-7\5-7\5-777-7\5-7\5-3-3-3-3-3-3------------------------|
 E|------------3/5-5-555-5\3-5\3-555-5\3-5\3-1-1-1------------------------------|

 


 pm .... ... ...


 


 

 
 e|-----------------------------------------------------------------------------|
 B|-----------------------------------------------------------------------------|
 G|-----------------------------------------------------------------------------|
 D|-5/7-7-7777-77---------------------------------------------------------------|
 A|-5/7-7-7777-77---------------------------------------------------------------|
 E|-3/5-5-5555-55---------------------------------------------------------------|

 


 pm ....


 


 VERSE 2


 [-]  


 

 
 e|-----------------------------------------------------------------------------|
 B|-----------------------------------------------------------------------------|
 G|-----------------------------------------------------------------------------|
 D|-5-5-535-5-5-555-5-5-2-5-7-7-777-7-7-----------------------------------------|
 A|-5-5-555-5-5-555-5-5-2-5-7-7-777-7-7--3-4-555-4-3----------------------------|
 E|-3-3-333-3-3-333-3-3-0-3-5-5-555-5-5-5------------5\3------------------------|

 


 pm ... ... ...


 


 

 
 e|-----------------------------------------------------------------------------|
 B|-----------------------------------------------------------------------------|
 G|-----------------------------------------------------------------------------|
 D|-5-5-535-5-5-555-5-5-2-5-7-7-777-7-7-----------------------------------------|
 A|-5-5-555-5-5-555-5-5-2-5-7-7-777-7-7--3-4-555-4-3----------------------------|
 E|-3-3-333-3-3-333-3-3-0-3-5-5-555-5-5-5------------5-3-5----------------------|

 


 pm ... ... ...


 


 

 
 e|-----------------------------------------------------------------------------|
 B|-----------------------------------------------------------------------------|
 G|-----------------------------------------------------------------------------|
 D|-5-5-535-5-5-555-5-5-2-5-7-7-777-7-7-99-10-10-10-----------------------------|
 A|-5-5-555-5-5-555-5-5-2-5-7-7-777-7-7-99-10-10-10-----------------------------|
 E|-3-3-333-3-3-333-3-3-0-3-5-5-555-5-5-77-8--8--8------------------------------|

 


 pm ... ... ...


 


 

 
 e|-----------------------------------------------------------------------------|
 B|-----------------------------------------------------------------------------|
 G|-----------------------------------------------------------------------------|
 D|-5-5-535-5-5-555-5-5-2-5-7-7-777-7-7---------------------3-4-555-4-3---------|
 A|-5-5-555-5-5-555-5-5-2-5-7-7-777-7-7--3-4-555-4-3-------5-----------5-3-5----|
 E|-3-3-333-3-3-333-3-3-0-3-5-5-555-5-5-5------------5-3-5----------------------|

 


 pm ... ... ...


 


 

 
 e|-----------------------------------------------------------------------------|
 B|-----------------------------------------------------------------------------|
 G|-----------------------5h7p5-----5h7p7-------------------------5h7p7---------|
 D|----------------------------5h7p7-----------------------------------5h7p7----|
 A|----3-------5-------2----------------------3-------5-------2-----------------|
 E|1-1---1-3-3---3-0-0---0----------------1-1---1-3-3---3-0-0---0---------------|
 e|-----------------------------------------------------------------------------|
 B|-----------------------------------------------------------------------------|
 G|-5h7p5-------------------------------------------------------2---------------|
 D|-------------------------------------------------------------2---------------|
 A|-----------3-------5-----------------------------3-------5---0---------------|
 E|-------1-1---1-3-3---3-0-0-5-0-7-0-8-0-7-0-5-1-1---1-3-3---3-----------------|

 


 


 (Dave does a slide between the transition of these riffs...listen carefully)


 


 

 
 e|-----------------------------------------------------------------------------|
 B|-----------------------------------------------------------------------------|
 G|-----------------------------------------------------------------------------|
 D|-----------------------------------------------------------------------------| repeat
 A|-000-10-000-12-000-12-0-15-000-10-000-12-000-15-14-13------------------------|
 E|-----------------------------------------------------------------------------|

 


 


 SOLOs (Havent got this down yet, but i will post it when i do)


 


 the ending is basically the beginning/chorus riff, you can figure it out..


 


 

 
 e|-----------------------------------------------------------------------------|
 B|-----------------------------------------------------------------------------|
 G|-------------------------------------5-5-5-----------------------------------|
 D|-5/7-7-777-7\5-7\5-777-7\5-7\5-3-3-3-5-5-5-----------------------------------|
 A|-5/7-7-777-7\5-7\5-777-7\5-7\5-3-3-3-3-3-3-----------------------------------|
 E|-3/5-5-555-5\3-5\3-555-5\3-5\3-1-1-1-----------------------------------------|

 


 pm ... ...


 


 

 
 e|-----------------------------------------------------------------------------|
 B|-----------------------------------------------------------------------------|
 G|-5/7-7-9999-------------------------------------5-5-5------------------------|
 D|-5/7-7-9999-5/7-7-777-7\5-7\5-777-7\5-7\5-3-3-3-5-5-5------------------------|
 A|-3/5-5-7777-5/7-7-777-7\5-7\5-777-7\5-7\5-3-3-3-3-3-3------------------------|
 E|------------3/5-5-555-5\3-5\3-555-5\3-5\3-1-1-1------------------------------|

 


 pm .... ... ...


 


 

 
 e|-----------------------------------------------------------------------------|
 B|-----------------------------------------------------------------------------|
 G|-----------------------------------------------------------------------------|
 D|-5/7-7-7777-77---------------------------------------------------------------|
 A|-5/7-7-7777-77---------------------------------------------------------------|
 E|-3/5-5-5555-55---------------------------------------------------------------|


Important: The song above is NOT stored on the Chordie server. The original song is hosted at www.guitartabs.cc. Chordie works as a search engine and provides on-the-fly formatting. Chordie does not index songs against artists'/composers' will. To remove this song please click here.

This song is displayed as text-only. Transposing and tuning is only available for chordpro-songs.
Rate #1 of 2 versions

Login - add to songbook

SHARE PAGE  



You need to log in to post comments