Guitar Tabs, Chords and Lyrics
Server problems seems to be fixed. Chordie has been experiencing problems with songs disappearing. These issues now seems to be fixed, but still verifying the fix. If you find anything strange, please email admin@chordie.com.


After the Rain   Bruce Cockburn

 
 e -|--0--| ( ) |--0--| ( ) |--0--| ( ) |--0--| ( ) |--x--| ( )
 B -|--2--| (1) |--2--| (1) |--0--| ( ) |--0--| ( ) |--x--| ( )
 F#-|--0--| ( ) |--3--| (2) |--0--| ( ) |--0--| ( ) |--2--| (1)
 D -|--0--| ( ) |--4--| (3) |--2--| (1) |--0--| ( ) |--2--| (1)
 A -|--0--| ( ) |--0--| ( ) |--4--| (4) |--2--| (4) |--2--| (1)
 E -|--x--| ( ) |--x--| ( ) |--4--| (3) |--2--| (3) |--0--| ( )

 


 


 Tablature Legend


 

 
 ----------------

 


 


 . Above a note indicates a staccatto note


 . Above 'e' line indicates chord quickly muted after played


 ^v Downstroke, Upstroke (not always indicated)


 /\ indicate sliding (/ = up, \ = down)


 h hammer on


 p pull off


 x muted


 g Glissando


 () Not Picked


 


  Intro (Free flowing)


 g


 

 
 e -|--------------------------|--------------------------|
 B -|--2-h3-p2-----2-h3--2-----|----------2--0------------|
 F#-|--0--------0--------------|-------3--------0--------0|
 D -|--0-----------------------|-4-----------------2------|
 A -|--0-----------------------|----0-----0-----------4---|
 E -|--------------------------|-------------4------------|

 


 


 ^ ^ v


 

 
 e -|-------|--------------------0-----|--------------0-----0--0--|
 B -|-------|-----------0--------0-----|--------------0-----0--0--|
 F#-|-------|--0--------0--------0-----|--------------0-----0--0--|
 D -|-2-----|--0--------0--------------|--------------------------|
 A -|----4\-|--2-----------------------|--------------------------|
 E -|---(4)\|--2-----------------------|--------------------------|

 


 1 2 1 . 2 . 3 . 4 . 1 . 2 . 3 . 4 .


 


 

 
 e -|--------------------------|-----------------0--------|
 B -|--------------------------|-----------------0--------|
 F#-|--------x--0--------0-----|-----------0--------------|
 D -|--------x--0--------0-----|-----------0--------------|
 A -|--0-h2--x--2-----2--------|-----2--------------------|
 E -|--0-h2--------2-----2-----|--2-----2-----2-----2-----|

 


 1 . 2 . 3 . 4 . 1 . 2 . 3 . 4 .


 


 Bar1 g 2


 

 
 e -|-----------------0--------|--------------------------|
 B -|--2-h3-p2--2-h3-----2-----|--------------------2-----|
 F#-|--0-----------------------|-----------------3--------|
 D -|--0-----------------------|-----------4--------------|
 A -|--0-----0-----0-----0-----|--0-----0-----0-----0-----|
 E -|--------------------------|--------------------------|

 


 1 . 2 . 3 . 4 . 1 . 2 . 3 . 4 .


 


 [3] [4]  

 
 e -|--------------------------|--------------------------|
 B -|--0-----------------------|--------------------------|
 F#-|-----0--------0-----------|-----------0--------------|
 D -|--------2--------2--------|-----2-----------2--------|
 A -|-----------4-----------4--|--------------------4\----|
 E -|--4-----4-----4-----4-----|--4-----4-----4-----4\----|

 


 1 . 2 . 3 . 4 . 1 . 2 . 3 . 4 .


  5 6


 

 
 e -|--------------------------|--------------------------|
 B -|--------------------------|--------------------------|
 F#-|--0--------0-----------0--|--------x--0-----0-----0--|
 D -|--0--------0-----------0--|--------x--0-----0-----0--|
 A -|--2--------2-----2--------|---h(2)-x--2-----2--------|
 E -|--2-----2-----2-----2-----|--0-h2--------2-----2-----|

 


 1 . 2 . 3 . 4 . 1 . 2 . 3 . 4 .


 


 7 8


 

 
 e -|--------------------------|-----------------0--------|
 B -|--------------------------|-----------0-----0--------|
 F#-|--------x--0--------0-----|-----------0--------------|
 D -|--------x--0--------0-----|--------------------------|
 A -|---h(2)-x--2-----2--------|-----2--------------------|
 E -|--0-h2--------2-----2-----|--2-----2-----2-----2-----|

 


 1 . 2 . 3 . 4 . 1 . 2 . 3 . 4 .


 


 9 . 10 ^


 

 
 e -|--------------------------|--0----2------0-----------|
 B -|--2--------2--------2-----|--2--------3-----2-----0--|
 F#-|--0--------0--------0-----|--0-----------------3-----|
 D -|--0--------0--.-----0-----|--------------------------|
 A -|--0-----0-----0-----0-----|--------------------------|
 E -|--------------------------|--------------------------|

 


 1 . 2 . 3 . 4 . 1 . 2 . 3 . 4 .


 


 [11] [12]  

 
 e -|--------------------------|--------------------------|
 B -|-----------0--------0-----|--------------------------|
 F#-|-----------0--------0-----|-----------------0--------|
 D -|-----------------2--------|-----------2--------------|
 A -|--------------------------|-----4-----------------0--|
 E -|--4-----4-----4-----4-----|--4-----4-----4-----4-----|

 


 1 . 2 . 3 . 4 . 1 . 2 . 3 . 4 .


 


 [13] [14]  

 
 e -|--------------------------|-----------------0--------|
 B -|--------------------------|-----------------0--------|
 F#-|--------x--0--------------|--x--0--------------------|
 D -|--------x--0--------------|--x--0-----0-----------0--|
 A -|---h(2)-x--2-----2---h(2)-|--x--2--------------------|
 E -|--0-h2--------2-----0-h2--|--------2-----2-----2-----|

 


 1 . 2 . 3 . 4 . 1 . 2 . 3 . 4 .


  15 16


 

 
 e -|--------------------------|-----------------0--------|
 B -|--------------------------|-----------------0--------|
 F#-|--------x--0--------------|--x--0--------------------|
 D -|--------x--0--------------|--x--0-----0--------------|
 A -|---h(2)-x--2-----2---h(2)-|--x--2--------------------|
 E -|--0-h2--------2-----0-h2--|--------2-----2-----2-----|

 


 1 . 2 . 3 . 4 . 1 . 2 . 3 . 4 .


 


 Repeat bars 9 to 16 once, then:


 Lyrics start here


 17 . 18


 

 
 e -|--------------------------|--------------------------|
 B -|--2--------2--------2-----|-----------------2--------|
 F#-|--0--------0--------0-----|-----------0--------------|
 D -|--0--------0--.-----0-----|-----0-----------------0--|
 A -|--0-----0-----0-----0-----|--0-----0-----0-----0-----|
 E -|--------------------------|--------------------------|

 


 1 . 2 . 3 . 4 . 1 . 2 . 3 . 4 .


 After the rain and...


 


 19 20


 

 
 e -|--------------------------|--------------------------|
 B -|--0--------0--------0-----|--------------------------|
 F#-|--0--------0--------0-----|-----------------0--------|
 D -|--2--------------2--------|-----------2-----------2--|
 A -|--------------------------|-----4--------------------|
 E -|--4-----4-----4-----4-----|--4-----4-----4-----4-----|

 


 1 . 2 . 3 . 4 . 1 . 2 . 3 . 4 .


 


 [21] [22]  

 
 e -|--------------------------|--------------------------|
 B -|--------------------------|-----------------0--------|
 F#-|--------x--0--------------|--x--0-----------0--------|
 D -|--------x--0--------------|--x--0-----0--------------|
 A -|---h(2)-x--2-----2---h(2)-|--x--2-----------------2--|
 E -|--0-h2--------2-----0-h2--|--------2-----2-----2-----|

 


 1 . 2 . 3 . 4 . 1 . 2 . 3 . 4 .


 


 [23] [24]  

 
 e -|--------------------------|--------------------------|
 B -|--------------------------|-----------------0--------|
 F#-|--------x--0--------------|--x--0-----------0--------|
 D -|--------x--0--------------|--x--0-----0--------------|
 A -|---h(2)-x--2-----2---h(2)-|--x--2-----------------2--|
 E -|--0-h2--------2-----0-h2--|--------2-----2-----2-----|

 


 1 . 2 . 3 . 4 . 1 . 2 . 3 . 4 .


 


 Repeat bars 17 to 24 once.


 Repeat bars 9 to 16 once.


 Repeat bars 17 to 22 once (lyrics start again), then:


 


 [25] [26]  

 
 e -|--------------------------|-----------0--------------|
 B -|-----------------------0--|-----------0-----0--------|
 F#-|-----------0-----------0--|-----------------0--------|
 D -|-----------0--------------|-----------------------0--|
 A -|-----2-----------2--------|-----2--------------------|
 E -|--2-----2-----2-----2-----|--2-----2-----2-----2-----|

 


 1 . 2 . 3 . 4 . 1 . 2 . 3 . 4 .


 


 27 28


 

 
 e -|--------------------------|--------------------------|
 B -|--------------------------|--------------------------|
 F#-|--------------------------|--2-h3--------2-----------|
 D -|-----------2--------------|--2-----------2-----------|
 A -|-----2-----------2-----2--|--------------------------|
 E -|--0-----0-----0-----0-----|--0-----0-----0-----0-----|

 


 1 . 2 . 3 . 4 . 1 . 2 . 3 . 4 .


 


 29 30


 

 
 e -|------------------------Trill---------0--------------|
 B -|-----------2--------2-h3p2|-p0--2-h3--------3-p2-----|
 F#-|--0-----------------------|-----------------------3--|
 D -|--------------------------|--------------------------|
 A -|--0-----0-----0-----0-----|--0-----0-----0-----0-----|
 E -|--------------------------|--------------------------|

 


 1 . 2 . 3 . 4 . 1 . 2 . 3 . 4 .


 


 [31] [32]  

 
 e -|--------------------------|--------------------------|
 B -|--------------------------|--------------------------|
 F#-|-----------------2--------|--2-h3--------2-----------|
 D -|--2-----------------------|--2-----------2-----------|
 A -|-----------2-----------2--|--------------------------|
 E -|--0-----0-----0-----0-----|--0-----0-----0-----0-----|

 


 1 . 2 . 3 . 4 . 1 . 2 . 3 . 4 .


 


 Repeat bars 29 to 32 once, then


 


 [33] [34]  

 
 e -|--------------------------|-----------------0--------|
 B -|--------------------2-----|-----------2-----2--------|
 F#-|--0--------0--------0-----|-----0-----0-----------0--|
 D -|--0--------0--------0-----|-----0-----------------0--|
 A -|--0-----0-----0-----0-----|--0-----0-----0-----0-----|
 E -|--------------------------|--------------------------|

 


 1 . 2 . 3 . 4 . 1 . 2 . 3 . 4 .


  35 * 36


 

 
 e -|--------------------------|--------------------------|* Strums using this
 B -|--------------------------|--------------------------| chord. Listen to
 F#-|--------------------------|--------------------------| music for pattern.
 D -|--7-----------------------|--7-----------------------| ? might be at 7'th
 A -|--7-----------------------|--7-----------------------| fret also - hard to
 E -|--?-----------------------|--?-----------------------| tell.

 


 1 . 2 . 3 . 4 . 1 . 2 . 3 . 4 .


 


 37 * 38


 

 
 e -|--------------------------|--------------------------|* See note above.
 B -|--------------------------|--------------------------|
 F#-|--------------------------|--------------------------|
 D -|--6-----------------------|--6-----------------------|
 A -|--7-----------------------|--7-----------------------|
 E -|--------------------------|--------------------------|

 


 1 . 2 . 3 . 4 . 1 . 2 . 3 . 4 .


 


 Repeat bars 35 to 38 once.


 Repeat bars 9 to 16 twice.


 Repeat bars 17 to 24 twice (main lyrics begin again).


 Repeat bars 9 to 16 once.


 Repeat bars 17 to 22 once.


 Repeat bars 25 to 32 once.


 Repeat bars 29 to 32 once.


 Repeat bars 33 to 38 once.


 Repeat bars 35 to 38 once.


 Repeat bars 9 to 16 once, then the closing part with lead:


 


 39 40


 

 
 e -|------Trill---------0-h4--|-p0-----------------------|
 B -|-----2h3p2p0--2-h3--------|-----3-p2-----3-p2-p0-----|
 F#-|--------------------------|-----------------------0--|
 D -|--------------------------|--------------------------|
 A -|--0-----0-----0-----0-----|--0-----0-----0-----0-----|
 E -|--------------------------|--------------------------|

 


 1 . 2 . 3 . 4 . 1 . 2 . 3 . 4 .


 


 [41] [42]  

 
 e -|--------------------------|--------------------------|
 B -|--0-----------------------|--------------------------|
 F#-|-----0--------0-----------|-----------0--------------|
 D -|--------2--------2--------|-----2-----------2--------|
 A -|-----------4-----------4--|--------------------4\----|
 E -|--4-----4-----4-----4-----|--4-----4-----4-----4\----|

 


 1 . 2 . 3 . 4 . 1 . 2 . 3 . 4 .


  43 44


 

 
 e -|--------------------------|--------------------------|
 B -|--------------------------|--------------------------|
 F#-|--0--------0-----------0--|--------x--0-----0-----0--|
 D -|--0--------0-----------0--|--------x--0-----0-----0--|
 A -|--2--------2-----2--------|---h(2)-x--2-----2--------|
 E -|--2-----2-----2-----2-----|--0-h2--------2-----2-----|

 


 1 . 2 . 3 . 4 . 1 . 2 . 3 . 4 .


 


 [45] [46]  

 
 e -|--------------------------|--------------------------|
 B -|--------------------------|--------------------------|
 F#-|--------x--0-----0-----0--|--------x--0-----0-----0--|
 D -|--------x--0-----0-----0--|--------x--0-----0-----0--|
 A -|---h(2)-x--2-----2--------|---h(2)-x--2-----2--------|
 E -|--0-h2--------2-----2-----|--0-h2--------2-----2-----|

 


 1 . 2 . 3 . 4 . 1 . 2 . 3 . 4 .


 


 [43] [44]  

 
 e -|-----9-----9--------0--5--|--2-p0--------0-----------|
 B -|-------10----10--7--------|--------2--------2--------|
 F#-|--------------------------|-----------0--------0-----|
 D -|--------------------------|-----------------------2--|
 A -|--0-----0-----0-----0-----|--0-----0-----0-----0-----|
 E -|--------------------------|--------------------------|

 


 1 . 2 . 3 . 4 . 1 . 2 . 3 . 4 .


 


 [45] [46]  

 
 e -|--------------------------|--------------------------|
 B -|--------------------------|--------------------------|
 F#-|--------------------------|--------------------------|
 D -|--4--2--------------------|-----------------2--------|
 A -|-----------4--------------|-----------4-----4-(4)\---|
 E -|--4-----4-----4-----4-----|--4-----4-----4-----4\----|

 


 1 . 2 . 3 . 4 . 1 . 2 . 3 . 4 .


 


 

 
 e -|--------------------------|--------------------------|
 B -|--------------------------|--------------------------|
 F#-|-----------0-----0-----0--|--------x--0-----0-----0--|
 D -|--0--------0-----0-----0--|--------x--0-----0-----0--|
 A -|--2--------2-----2--------|---h(2)-x--2-----2-----2--|
 E -|--2-----2-----2-----2-----|--0-h2--------2-----2-----|

 


 1 . 2 . 3 . 4 . 1 . 2 . 3 . 4 .


 


 

 
 e -|--------------------------|--------------------------|
 B -|--------------------------|--------------------------|
 F#-|--------x--0--------x--0--|--------x--0--------x--0--|
 D -|--------x--0--------x--0--|--------x--0--------x--0--|
 A -|---h(2)-x--2---h(2)-x--2--|---h(2)-x--2---h(2)-x--2--|
 E -|--0-h2--------0-h2--------|--0-h2--------0-h2--------|

 


 1 . 2 . 3 . 4 . 1 . 2 . 3 . 4 .


 


 (free flowing)


 

 
 e -|--------------------------|--2-----0-----------------|
 B -|--2-----2-----2-----------|-----3-----2--------0-----|
 F#-|--0-----0-----0-----------|--------------3-----0-----|
 D -|--0-----0-----0-----------|--------------------2-----|
 A -|--0-----0-----0-----------|--------------------------|
 E -|--------------------------|--------------------4-----|

 


 1 . 2 . 3 . 4 . 1 . 2 . 3 . 4 .


 


 *


 

 
 e -|--------------------------|--------------------------| * Strum the hell
 B -|--0-----0-----------------|--------------------------| out of it.
 F#-|--0-----0--------------0--|--------0-----------------|
 D -|--2-----2-----------2-----|--2-----0-----------------|
 A -|--------------4--4--------|--------2-----------------|
 E -|--4-----4-----4-----------|--------2-----------------|


Important: The song above is NOT stored on the Chordie server. The original song is hosted at www.guitartabs.cc. Chordie works as a search engine and provides on-the-fly formatting. Chordie does not index songs against artists'/composers' will. To remove this song please click here.

This song is displayed as text-only. Transposing and tuning is only available for chordpro-songs.
Rate #0 of 2 versions

Login - add to songbook

SHARE PAGE  



You need to log in to post comments