Guitar Tabs, Chords and Lyrics
Major upgrade!! After one year development the new version of Chordie is now online! Please give feedback.


Gloria's Eyes  Bruce Springsteen

Gloria's Eyes - Bruce Springsteen
[A] [D] [A]  
 
 E---------|---------|---------|---------|-----------|-----------|---------|---------|
 B---------|---------|---------|---------|-----------|-----------|---------|---------|
 G-----0-2-|-----0-2-|-----0-2-|-----0-2-|-------0-2-|-------0-2-|-----0-2-|-----0-2-|
 D---2-----|---2-----|---2-----|---2-----|-----2-----|-----2-----|---2-----|---2-----|
 A-0-------|-0-------|-0-------|-0-------|-----------|-----------|-0-------|-0-------|
 D---------|---------|---------|---------|-0-0-------|-0-0-------|---------|---------|

!
[A]I was your big man I was your prince charming
King ona white horse hey now look how far I've fallen[D]
I tried to trick you yeah but baby you got wise[A]
[E]You cut me right down to [D]size
Yeah, [C]now I'm just a [D]fool in Gloria's eyes[A]
Swore I'd get you back I was so sure
I'd get you back like I done so many times before[D]
A little sweet talk to cover over all of the lies[A]
[E]You came runnin' back but to my sur[D]prise
C D A | A |
Well there's somethin' gone in Gloria's eyes
(Guitar solo)
[C] [C] [D] [D] [C]  
 
 e-----------|-----------|----------------|-----------------15-|--------------------|--
 B--15^17~~--|--17-15-13-|-15-13----------|-----13-15-15/17----|--15b(17)-15-15~~---|--
 G----h------|-----------|-------14-14~~--|---14--------s------|--------------------|--
 D-----------|-----------|----------------|--------------------|--------------------|--
 A-----------|-----------|----------------|--------------------|--------------------|--
 E-----------|-----------|----------------|--------------------|--------------------|--

[C] [D] [D] [A] [A]  
 
 e-------------------|----------------|------------------------|----------|---------|--
 B----13-15-15/17-15-|-15-13----------|-----------13-----------|----------|---------|--
 G-14---------s------|-------14-14~~--|-----12-14----14-12-14--|-14~~-----|---------|--
 D-------------------|----------------|--14--------------------|----------|---------|--
 A-------------------|----------------|------------------------|----------|---------|--
 E-------------------|----------------|------------------------|----------|---------|--

[A] [A] [D]  
 
 e----------15----|----------------------|---------------------|--
 B--15b(17)----15-|-13----15-13----------|---------------------|--
 G----------------|----14-------14-12^14-|-14~~~~--------------|--
 D----------------|------------------h---|---------------------|--
 A----------------|----------------------|---------------------|--
 E----------------|----------------------|---------------------|--

"Well in the dark..."
Well[D] in the dark when it was just me and you[C]
I asked the question that I knew the answer to[D]
Is that a smile my little dolly on the shelf[C]
Tell me is that a smile
Or is [D]it somethin' else?
[A]Now I work hard to prove my love is true
Now I work hard and I bring it on home to you[D]
At night I pray as silently you lie[A]
[E]Some day my love agin will [D]rise
[C]Like a shining [D]torch in Gloria's eyes[A]
[C]Like a shining [D]torch in Gloria's eyes[A]
Yeah, [C]like a shining [D]torch in Gloria's eyes[A]
N.C.
I was your big man your prince charming
King ona white horse now look how far I've fallen
(Guitar solo to fade out) | A | A | A | A | D | D | A | A
[A] [D] [E] [C]  
 
 E-0--2--0--0-
 B-2--3--0--1-
 G-2--2--1--0-
 D-2--0--2--2-
 A-0-----2--3-
 D-------x----


Important: The song above is NOT stored on the Chordie server. The original song is hosted at www.guitartabs.cc. Chordie works as a search engine and provides on-the-fly formatting. Chordie does not index songs against artists'/composers' will. To remove this song please click here.

Text color:
Chord color:
Chord grids: 
Font size:    
Page size: 

A C D E
Rate #1 of 1 versions

Jango Player

Login - add to songbook

SHARE PAGE  



You need to log in to post comments