Guitar Tabs, Chords and Lyrics
Server problems seems to be fixed. Chordie has been experiencing problems with songs disappearing. These issues now seems to be fixed, but still verifying the fix. If you find anything strange, please email admin@chordie.com.


Magic  Bruce Springsteen

Okay here is the brand NEW!!! song from Bruce Springsteen I have
played it with the Album and this is it
Magic
Capo 4 Fret
Standard Tuning EADGBe
Intro: Am
[Am]I got a coin in my palm
I can m[C]ake it disappear
I got a [Am]card up my sleeve
Name it and I'll p[C]ull it out your ear
I got a r[G]abbit in the hat
If you w[Am]anna come and see
[C]This is [C/B]what will [Am]be
This is what will be
I got sha[Am]ckles on my wrists
Soon I'll s[C]lip um' I'll be gone
Chain me in a [Am]box in the river
And I'll r[C]ise singin' this song
Trust n[G]one of what you hear
And l[Am]ess of what you see
[C]This is w[C/B]hat will b[Am]e
This is what will be
(Instrumental)
[Am](I'll cut you in half)
I got a s[Am]hiny saw blade (a shiny saw blade)
All I [C]need's a volunteer
[Am]I'll cut you in half
While you're s[C]milin' ear to ear
And the f[Am]reedom that you sought
Driftin' like a [C]ghost amongst the trees
[C]This is [C/B]what will [Am]be
This is what will be
Now there's a f[Am]ire down below
But it's c[C]oming up here
So leave eve[Am]rything you know
Carry o[C]nly what you fear
On the road the s[G]un is sinkin' low
Bodies h[Am]anging in the trees
[C]This is w[C/B]hat will [Am]be
This is what will be
Thats it and the C/B chord I belive that is what it is call looks like this
 
 e--------------------------------------------
 b---1------------------------------------------
 g----------------------------------------------
 D---------------------------------------------
 A---2-----------------------------------------
 E--------------------------------------------

And Played in this manor
T[C]his Is [C/B]What Would [Am]Be
 
 e------------------------------------------------
 b-2------------1-----------------1-----------------
 g-0------------------------------2----------------
 D-2------------------------------2---------------
 A 3------------2----------------------------------
 E-----------------------------------------------


Important: The song above is NOT stored on the Chordie server. The original song is hosted at www.guitartabs.cc. Chordie works as a search engine and provides on-the-fly formatting. Chordie does not index songs against artists'/composers' will. To remove this song please click here.

Text color:
Chord color:
Chord grids: 
Font size:    
Page size: 

Am C C/B G
Rate #2 of 8 versions

Jango Player

Login - add to songbook

SHARE PAGE  



You need to log in to post comments