Guitar Tabs, Chords and Lyrics
Major upgrade!! After one year development the new version of Chordie is now online! Please give feedback.


Sherry Darling  Bruce Springsteen

Sherry Darling - Bruce Springsteen
[Bb] [C] [F] [Bb]  
 
 ---------s----------|---------------|------------|-----------|
 -6--6-6-6\5vvvv--5--s---------------|------------|-----------|
 ---------|---------7\5vvvv----------s----------5-|-7vvvv-7-7-|
 ---------|----------|-------4-5-7-8/7vvvv--7-8---|-----------|
 ---------|----------|---------------|------------|-----------|
 ---------|----------|---------------|------------|-----------|

[C] [F] [Bb] [F]  
 
 --------------|-------|-------|
 -5vvvv--5---5-|-6vvvv-|--s-s--|
 ----------7---|-------|-5/7\5-|
 --------------|-------|-------|
 --------------|-------|-------|
 --------------|-------|-------|

Your mama's [F]yapping in the back[Bb]seat
Tell her to push [C]over and move them big [F]feet
Every Monday morni[Bb]ng I gotta drive her dow[C]n to the unemployment agen[F]cy
[C]Well this morning I ain't fi[F]ghting tell her I give [Bb]up
Tell her she [C]wins if she'll just shut [F]up
But it's the [Bb]last time that she's [C]gonna be riding with [F]me[Bb]
[F]And you can tell her there's a [Bb]hot sun beating on the [C]black top
She keeps talking she'll be walking that last[F] block
She can [Dm]take a subway back to the ghetto tonigh[C]t
Well I got some [F]beer and the highway's f[Bb]ree
And I got [C]you and baby you've got [F]me
Bb C F Bb | F C
Hey, hey, hey, what you say Sherry Darling
Now there's [F]girls melting on the [Bb]beach
And they're so f[C]ine but so out of r[F]each
Cause I'm st[Bb]uck in traffic down her[C]e on 53rd S[F]treet[C]
Now Sherry my l[F]ove for you is r[Bb]eal
But I didn't c[C]ount on this package d[F]eal
And baby t[Bb]his car just ain't [C]big enough for her and[F] me[Bb]
[F]So you can tell her there's a [Bb]hot sun beating on the [C]black top
She keeps talking she'll be walking that last[F] block
She can [Dm]take a subway back to the ghetto tonigh[C]t
Well I got some [F]beer and the highway's f[Bb]ree
And I got [C]you and baby you've got [F]me
Bb C F Bb | F C |
Hey, hey, hey, what you say Sherry Darling
(Sax solo) | F | Bb | C | F | Bb | C | F Bb |
[C] [F] [Bb] [C] [F] [Bb]  
 
 --5-5-|-5-6/8--8--8--8-\6-|-6--6-6--5-|-3--3-5-6--5-|-5--5-5--6-|-6/8-/10--8--|
 --6-6-|-6-8/10-10-10-10\8-|-8--8-8--6-|-5--5-6-5--6-|-6--6-6--8-|-8/10/11--10-|
 ------|----s-----------s--|-----------|--------5----|-----------|--s----------|
 ------|-------------------|-----------|-------------|-----------|-------------|
 ------|-------------------|-----------|-------------|-----------|-------------|
 ------|-------------------|-----------|-------------|-----------|-------------|

[C] [F] [Bb] [F]  
 
 -8--10/12--13-|-13--13----13----|--13--
 -10-11/13--10-|-10--10>11-10>11-|--10--
 ------s-------|-------h-----h---|------
 --------------|-----------------|------
 --------------|-----------------|------
 --------------|-----------------|------

Well let there be [Bb]sunlight let there be r[C]ain
Let the brokenhearted love [F]again
Sherry we could r[Dm]un with our arms open wide before the t[C]ide
To all the g[F]irls down at Sacred H[Bb]eart
And all you o[C]perators back in the p[F]ark
Say hey, hey, h[Bb]ey, what you [C]say Sherry D[F]arling
Oh, oh,[Dm] oh, hey hey h[Bb]ey, what you [C]say Sherry [F]Darling
Dm Bb C F | Bb | F
Oh come on say hey, hey, hey, what you say Sherry Darling
(Sax solo to fade out) | Bb | C | C | F | Dm | Dm | C | C |
| F | Bb | C | F | Bb | C | F Bb | F |
[F] [Bb] [C] [Dm]  
 
 -1--1--0--1-
 -1--3--1--3-
 -2--3--0--2-
 -3--3--2--0-
 -3--1--3----
 -1----------

b....bend
rb...release bend
/....slide up
\....slide down
>....hammer

Important: The song above is NOT stored on the Chordie server. The original song is hosted at www.guitartabs.cc. Chordie works as a search engine and provides on-the-fly formatting. Chordie does not index songs against artists'/composers' will. To remove this song please click here.

Text color:
Chord color:
Chord grids: 
Font size:    
Page size: 

Bb C Dm F
Rate #2 of 4 versions

Jango Player

Login - add to songbook

SHARE PAGE  




You need to log in to post comments