Guitar Tabs, Chords and Lyrics
Server problems seems to be fixed. Chordie has been experiencing problems with songs disappearing. These issues now seems to be fixed, but still verifying the fix. If you find anything strange, please email admin@chordie.com.


Breaking Point  Bullet for My Valentine

 
 ----------------------------------------------------------------------------

Breaking Point
Bullet For My Valentine
 
 ----------------------------------------------------------------------------

BFMV will always be a strong band. I remember listening to “The Poison” in middle
school. It completely changed my life and I’ve found that no matter how much
Bullet For My Valentine changes, they will always be the band that helped me
through rough times. Enjoy!
Username: dkm817 (same on X box live)
Youtube Cover: http://www.youtube.com/watch?v=Hk58T8_fZBs
Email: guitardrums@rockfan.com
Guitar 1 Rhythmic (C G C F A D)
Guitar 2 Lead (C G C F A D)
Guitar 3 Lead (C G C F A D)
NOTE: This was exported off of guitar pro.
H H W W
 
 D||-----------------------|-------------------|-------------------|
 A||-----------------------|-------------------|-------------------|
 F||-----------------------|-------------------|-------------------|
 C||-----------/12\--------|--0----------------|--L----------------|
 G||-----------/12\--------|--0----------------|--L----------------|
 C||-----------/12\--------|--0----------------|--L----------------|

W H Q Q
 
 -------------------|------------------------|
 -------------------|------------------------|
 -------------------|------------------------|
 --L----------------|--L--------L----/12\----|
 --L----------------|--L--------L----/12\----|
 --L----------------|--L--------L----/12\----|

PM PM PM PM PM PM PM PM PM PM
S S S S S S S S S S S S S S S S
 
 --------------------------------------------|
 --------------------------------------------|
 --------------------------------------------|
 --------------------------------------------|
 --8-5-5--5--5--5--8-5-5--5--5--5--8-5-5--5--|
 --------------------------------------------|

PM PM PM PM PM PM PM PM PM PM
S S S S S S S S S S S S S S S S
 
 --------------------------------------------|
 --------------------------------------------|
 --------------------------------------------|
 --------------------------------------------|
 --5--5--8-5-5--5--5--5--5-3-3--3--7-3-5--5--|
 --------------------------------------------|

PM PM PM PM PM PM PM PM PM PM
S S S S S S S S S S S S S S S S
 
 --------------------------------------------|
 --------------------------------------------|
 --------------------------------------------|
 --------------------------------------------|
 --8-5-5--5--5--5--8-5-5--5--5--5--8-5-5--5--|
 --------------------------------------------|

PM PM PM PM PM PM PM PM PM PM
S S S S S S S S S S S S S S S S
 
 --------------------------------------------|
 --------------------------------------------|
 --------------------------------------------|
 --------------------------------------------|
 --5--5--8-5-5--5--5--5--5-3-3--3--7-3-5--5--|
 --------------------------------------------|

PM PM PM PM PM PM PM PM PM PM
S S S S S S S S S S S S S S S S
 
 --------------------------------------------|
 --------------------------------------------|
 --------------------------------------------|
 --------------------------------------------|
 --8-5-5--5--5--5--8-5-5--5--5--5--8-5-5--5--|
 --------------------------------------------|

PM PM PM PM PM PM PM PM PM PM
S S S S S S S S S S S S S S S S
 
 --------------------------------------------|
 --------------------------------------------|
 --------------------------------------------|
 --------------------------------------------|
 --5--5--8-5-5--5--5--5--5-3-3--3--7-3-5--5--|
 --------------------------------------------|

PM PM PM PM PM PM PM PM PM PM
S S S S S S S S S S S S S S S S
 
 --------------------------------------------|
 --------------------------------------------|
 --------------------------------------------|
 --------------------------------------------|
 --8-5-5--5--5--5--8-5-5--5--5--5--8-5-5--5--|
 --------------------------------------------|

PM PM PM PM PM PM PM PM PM PM
S S S S S S S S S S S S S S S S
 
 --------------------------------------------|
 --------------------------------------------|
 --------------------------------------------|
 --------------------------------------------|
 --5--5--8-5-5--5--5--5--5-3-3--3--7-3-5--5--|
 --------------------------------------------|

PM PM PM PM PM PM PM PM PM PM
S S S S S S S S S S S S S S S S
 
 --------------------------------------------|
 --------------------------------------------|
 --------------------------------------------|
 --------------------------------------------|
 --8-5-5--5--5--5--8-5-5--5--5--5--8-5-5--5--|
 --------------------------------------------|

PM PM PM PM PM PM PM PM PM PM
S S S S S S S S S S S S S S S S
 
 --------------------------------------------|
 --------------------------------------------|
 --------------------------------------------|
 --------------------------------------------|
 --5--5--8-5-5--5--5--5--5-3-3--3--7-3-5--5--|
 --------------------------------------------|

PM PM PM PM PM PM PM PM PM PM PM
 
 |----3----| |----3----| 

S S S S S S S S S S S S Q Q Q Q Q Q Q
 
 ------------------------------------------|--------------------------------|
 ------------------------------------------|--------------------------------|
 ------------------------------------------|--------------------------------|
 ----------------------------------/12\----|--0----3----5----6----5----3----|
 --8-5-5--5--5--5--8-5-5--5--5--5--/12\----|--0----3----5----6----5----3----|
 ----------------------------------/12\----|--0----3----5----6----5----3----|

PM PM PM PM PM
E E E E E E E E E E E E S S S S S S S S
 
 --------------------------|------------------------------|
 --------------------------|------------------------------|
 --------------------------|------------------------------|
 --0--------0--------0-----|-----0-----0------------------|
 --0--------0--------0-----|-----0-----0--0-3-0-3-6-3-0-3-|
 --0--------0--------0-----|-----0-----0------------------|

PM PM PM PM PM
E E E E E E E E E E E E S S S S S S S S
 
 --------------------------|------------------------------|
 --------------------------|------------------------------|
 --------------------------|------------------------------|
 --0--------0--------0-----|-----0-----0------------------|
 --0--------0--------0-----|-----0-----0------------------|
 --0--------0--------0-----|-----0-----0--0-3-0-3-6-3-0-3-|

PM PM PM PM PM
E E E E E E E E E E E E S S S S S S S S
 
 --------------------------|------------------------------|
 --------------------------|------------------------------|
 --------------------------|------------------------------|
 --0--------0--------0-----|-----0-----0------------------|
 --0--------0--------0-----|-----0-----0--0-3-0-3-6-3-0-3-|
 --0--------0--------0-----|-----0-----0------------------|

PM PM PM PM PM
 
 |----3----| |----3----| 

E E E E E E S S S S Q Q Q Q Q Q
 
 ----------------------------|--------------------------------|
 ----------------------------|--------------------------------|
 --------------------x-x-x-x-|--------------------------------|
 --0--------0--------x-x-x-x-|--0----3----5----6----5----3----|
 --0--------0--------x-x-x-x-|--0----3----5----6----5----3----|
 --0--------0----------------|--0----3----5----6----5----3----|

PM PM PM PM PM PM
E E E E E E E E E S S E E S S S S S S S S
 
 --------------------------|----------------------------------|
 --------------------------|----------------------------------|
 --------------------------|----------------------------------|
 --0--------0--------0-----|-----0--0--0----------------------|
 --0--------0--------0-----|-----0--0--0-----0-7-0-7-10-7-0-7-|
 --0--------0--------0-----|-----0--0--0----------------------|

PM PM PM PM PM
E E E E E E E E E E E E S S S S S S S S
 
 --------------------------|------------------------------|
 --------------------------|------------------------------|
 --------------------------|------------------------------|
 --0--------0--------0-----|-----0-----0------------------|
 --0--------0--------0-----|-----0-----0------------------|
 --0--------0--------0-----|-----0-----0--0-3-0-3-6-3-0-3-|

PM PM PM PM PM PM
E E E E E E E E E S S E E S S S S S S S S
 
 --------------------------|----------------------------------|
 --------------------------|----------------------------------|
 --------------------------|----------------------------------|
 --0--------0--------0-----|-----0--0--0----------------------|
 --0--------0--------0-----|-----0--0--0-----0-7-0-7-10-7-0-7-|
 --0--------0--------0-----|-----0--0--0----------------------|

PM PM
 
 |----3----| |----3----| 

E E E E E E S S S S Q Q Q Q Q Q
 
 ----------------------------|--------------------------------|
 ----------------------------|--------------------------------|
 --------------------x-x-x-x-|--------------------------------|
 --0--------0--------x-x-x-x-|--0----3----5----6----5----3----|
 --0--------0--------x-x-x-x-|--0----3----5----6----5----3----|
 --0--------0----------------|--0----3----5----6----5----3----|

PM PM PM PM PM PM PM PM
S S S S S S S S S S S S S S S S S S S S S S S S S S S S Q
 
 ----------------------------------------|------------------------------------|
 ----------------------------------------|------------------------------------|
 ----------------------------------------|--------------------x-x-x-x---------|
 --0--0----------0--0----------0--0------|------0--0----------x-x-x-x-/12\----|
 --0--0----------0--0----------0--0------|------0--0----------x-x-x-x-/12\----|
 --0--0----------0--0----------0--0------|------0--0------------------/12\----|

W H Q E S S W
 
 -------------------|-----------------------|-------------------|
 -------------------|-----------------------|-------------------|
 --7----------------|--L--------L----L--x-x-|-------------------|
 --7----------------|--L--------L----L--x-x-|--8----------------|
 --5----------------|--L--------L----L--x-x-|--8----------------|
 -------------------|-----------------------|--8----------------|

W W H Q E S S
 
 --------------------|-------------------|-----------------------|
 --------------------|-------------------|-----------------------|
 --------------------|--7----------------|--L--------L----L--x-x-|
 --10----------------|--7----------------|--L--------L----L--x-x-|
 --10----------------|--5----------------|--L--------L----L--x-x-|
 --10----------------|-------------------|-----------------------|

W W
 
 --------------------|--------------------|
 --------------------|--------------------|
 --------------------|--------------------|
 --10----------------|--12----------------|
 ---8----------------|--10----------------|
 ---8----------------|--10----------------|

PM PM PM PM PM PM PM PM PM PM
S S S S S S S S S S S S S S S S
 
 --------------------------------------------|
 --------------------------------------------|
 --------------------------------------------|
 --------------------------------------------|
 --8-5-5--5--5--5--8-5-5--5--5--5--8-5-5--5--|
 --------------------------------------------|

PM PM PM PM PM PM PM PM PM PM
S S S S S S S S S S S S S S S S
 
 --------------------------------------------|
 --------------------------------------------|
 --------------------------------------------|
 --------------------------------------------|
 --5--5--8-5-5--5--5--5--5-3-3--3--7-3-5--5--|
 --------------------------------------------|

PM PM PM PM PM PM PM PM PM PM PM
 
 |----3----| |----3----| 

S S S S S S S S S S S S Q Q Q Q Q Q Q
 
 ------------------------------------------|--------------------------------|
 ------------------------------------------|--------------------------------|
 ------------------------------------------|--------------------------------|
 ----------------------------------/12\----|--0----3----5----6----5----3----|
 --8-5-5--5--5--5--8-5-5--5--5--5--/12\----|--0----3----5----6----5----3----|
 ----------------------------------/12\----|--0----3----5----6----5----3----|

PM PM PM PM PM
E E E E E E E E E E E E S S S S S S S S
 
 --------------------------|------------------------------|
 --------------------------|------------------------------|
 --------------------------|------------------------------|
 --0--------0--------0-----|-----0-----0------------------|
 --0--------0--------0-----|-----0-----0--0-3-0-3-6-3-0-3-|
 --0--------0--------0-----|-----0-----0------------------|

PM PM PM PM PM
E E E E E E E E E E E E S S S S S S S S
 
 --------------------------|------------------------------|
 --------------------------|------------------------------|
 --------------------------|------------------------------|
 --0--------0--------0-----|-----0-----0------------------|
 --0--------0--------0-----|-----0-----0------------------|
 --0--------0--------0-----|-----0-----0--0-3-0-3-6-3-0-3-|

PM PM PM PM PM
E E E E E E E E E E E E S S S S S S S S
 
 --------------------------|------------------------------|
 --------------------------|------------------------------|
 --------------------------|------------------------------|
 --0--------0--------0-----|-----0-----0------------------|
 --0--------0--------0-----|-----0-----0--0-3-0-3-6-3-0-3-|
 --0--------0--------0-----|-----0-----0------------------|

PM PM PM PM PM
 
 |----3----| |----3----| 

E E E E E E S S S S Q Q Q Q Q Q
 
 ----------------------------|--------------------------------|
 ----------------------------|--------------------------------|
 --------------------x-x-x-x-|--------------------------------|
 --0--------0--------x-x-x-x-|--0----3----5----6----5----3----|
 --0--------0--------x-x-x-x-|--0----3----5----6----5----3----|
 --0--------0----------------|--0----3----5----6----5----3----|

PM PM PM PM PM PM
E E E E E E E E E S S E E S S S S S S S S
 
 --------------------------|----------------------------------|
 --------------------------|----------------------------------|
 --------------------------|----------------------------------|
 --0--------0--------0-----|-----0--0--0----------------------|
 --0--------0--------0-----|-----0--0--0-----0-7-0-7-10-7-0-7-|
 --0--------0--------0-----|-----0--0--0----------------------|

PM PM PM PM PM
E E E E E E E E E E E E S S S S S S S S
 
 --------------------------|------------------------------|
 --------------------------|------------------------------|
 --------------------------|------------------------------|
 --0--------0--------0-----|-----0-----0------------------|
 --0--------0--------0-----|-----0-----0------------------|
 --0--------0--------0-----|-----0-----0--0-3-0-3-6-3-0-3-|

PM PM PM PM PM PM
E E E E E E E E E S S E E S S S S S S S S
 
 --------------------------|----------------------------------|
 --------------------------|----------------------------------|
 --------------------------|----------------------------------|
 --0--------0--------0-----|-----0--0--0----------------------|
 --0--------0--------0-----|-----0--0--0-----0-7-0-7-10-7-0-7-|
 --0--------0--------0-----|-----0--0--0----------------------|

PM PM
 
 |----3----| |----3----| 

E E E E E E S S S S Q Q Q Q Q Q
 
 ----------------------------|--------------------------------|
 ----------------------------|--------------------------------|
 --------------------x-x-x-x-|--------------------------------|
 --0--------0--------x-x-x-x-|--0----3----5----6----5----3----|
 --0--------0--------x-x-x-x-|--0----3----5----6----5----3----|
 --0--------0----------------|--0----3----5----6----5----3----|

PM PM PM PM PM PM PM PM
S S S S S S S S S S S S S S S S S S S S S S S S S S S S Q
 
 ----------------------------------------|------------------------------------|
 ----------------------------------------|------------------------------------|
 ----------------------------------------|--------------------x-x-x-x---------|
 --0--0----------0--0----------0--0------|------0--0----------x-x-x-x-/12\----|
 --0--0----------0--0----------0--0------|------0--0----------x-x-x-x-/12\----|
 --0--0----------0--0----------0--0------|------0--0------------------/12\----|

W H Q E S S W
 
 -------------------|-----------------------|-------------------|
 -------------------|-----------------------|-------------------|
 --7----------------|--L--------L----L--x-x-|-------------------|
 --7----------------|--L--------L----L--x-x-|--8----------------|
 --5----------------|--L--------L----L--x-x-|--8----------------|
 -------------------|-----------------------|--8----------------|

W W H Q E S S
 
 --------------------|-------------------|-----------------------|
 --------------------|-------------------|-----------------------|
 --------------------|--7----------------|--L--------L----L--x-x-|
 --10----------------|--7----------------|--L--------L----L--x-x-|
 --10----------------|--5----------------|--L--------L----L--x-x-|
 --10----------------|-------------------|-----------------------|

PM
W W Q E E Q E E
 
 --------------------|--------------------|------------------------|
 --------------------|--------------------|------------------------|
 --------------------|--------------------|--7----L--7--7----L-----|
 --10----------------|--12----------------|--7----L--7--7----L--0--|
 ---8----------------|--10----------------|--5----L--5--5----L--0--|
 ---8----------------|--10----------------|---------------------0--|

PM PM PM
E E Q E E Q Q E E Q E E
 
 ------------------------|-------------------------|
 ------------------------|-------------------------|
 ------------------------|-------------------------|
 --L--0--0----0--0--0----|--8----8--8--8----8--10--|
 --L--0--0----0--0--0----|--8----8--8--8----8--10--|
 --L--0--0----0--0--0----|--8----8--8--8----8--10--|

E E Q E E E E E E E E E E E E
 
 -------------------------------|--------------------------|
 -------------------------------|--------------------------|
 -------------------------------|--7--7--7--7--7--7--7--7--|
 --L--10--10----10--10--10--10--|--7--7--7--7--7--7--7--7--|
 --L--10--10----10--10--10--10--|--5--5--5--5--5--5--5--5--|
 --L--10--10----10--10--10--10--|--------------------------|

[E] [E] [E] [E] [E] [E] [E] [E] [E] [E] [E] [E] [E] [E] [E] [E]  
 
 --------------------------|----------------------------------|
 --------------------------|----------------------------------|
 --7--7--7--7--7--7--7--7--|----------------------------------|
 --7--7--7--7--7--7--7--7--|--10--10--10--10--10--10--10--10--|
 --5--5--5--5--5--5--5--5--|---8---8---8---8---8---8---8---8--|
 --------------------------|---8---8---8---8---8---8---8---8--|

PM PM PM
[E] [E] [E] [E] [E] [E] [E] [E] [E] [E] [E] [E] [E] [E] [E] [E]  
 
 ----------------------------------|--------------------------|
 ----------------------------------|--------------------------|
 ----------------------------------|--------------------------|
 --12--12--12--12--12--12--12--12--|--0--L--L--0--L--L--0--L--|
 --10--10--10--10--10--10--10--10--|--0--L--L--0--L--L--0--L--|
 --10--10--10--10--10--10--10--10--|--0--L--L--0--L--L--0--L--|

PM NH NH NH NH PM PM PM
[E] [E] [E] [E] [E] [E] [E] [E] [E] [E] [E] [E] [E] [E] [E] [E]  
 
 ----------------------------------|--------------------------|
 ----------------------------------|--------------------------|
 ----------------------------------|--------------------------|
 --L--0--L--L----------------------|--0--L--L--0--L--L--0--L--|
 --L--0--L--L--5--5--5--5--|--0--L--L--0--L--L--0--L--|
 --L--0--L--L----------------------|--0--L--L--0--L--L--0--L--|

PM NH NH NH NH PM PM PM
[E] [E] [E] [E] [E] [E] [E] [E] [E] [E] [E] [E] [E] [E] [E] [E]  
 
 ----------------------------------|--------------------------|
 ----------------------------------|--------------------------|
 ----------------------------------|--------------------------|
 --L--0--L--L----------------------|--0--L--L--0--L--L--0--L--|
 --L--0--L--L--5--5--5--5--|--0--L--L--0--L--L--0--L--|
 --L--0--L--L----------------------|--0--L--L--0--L--L--0--L--|

PM NH NH NH NH PM PM PM
[E] [E] [E] [E] [E] [E] [E] [E] [E] [E] [E] [E] [E] [E] [E] [E]  
 
 ----------------------------------|--------------------------|
 ----------------------------------|--------------------------|
 ----------------------------------|--------------------------|
 --L--0--L--L----------------------|--0--L--L--0--L--L--0--L--|
 --L--0--L--L--5--5--5--5--|--0--L--L--0--L--L--0--L--|
 --L--0--L--L----------------------|--0--L--L--0--L--L--0--L--|

PM NH NH NH NH PM PM PM PM
E E E E E E E E E S S S S Q E E E
 
 ----------------------------------|-------------------------------|
 ----------------------------------|-------------------------------|
 ----------------------------------|--7--7--7--7--7--7----7--7--7--|
 --L--0--L--L----------------------|--7--7--7--7--7--7----7--7--7--|
 --L--0--L--L--5--5--5--5--|--5--5--5--5--5--5----5--5--5--|
 --L--0--L--L----------------------|-------------------------------|

PM PM PM PM PM PM PM PM
E S S S S Q E E E E S S S S Q E E E
 
 -------------------------------|-------------------------------|
 -------------------------------|-------------------------------|
 --7--7--7--7--7--7----7--7--7--|--8--8--8--8--8--8----8--8--8--|
 --7--7--7--7--7--7----7--7--7--|--8--8--8--8--8--8----8--8--8--|
 --5--5--5--5--5--5----5--5--5--|--6--6--6--6--6--6----6--6--6--|
 -------------------------------|-------------------------------|

PM PM PM PM PM PM PM PM
E S S S S Q E E E E S S S S Q E E E
 
 -----------------------------------|-------------------------------|
 -----------------------------------|-------------------------------|
 -----------------------------------|--7--7--7--7--7--7----7--7--7--|
 --10--10-10-10-10-10----10--8--10--|--7--7--7--7--7--7----7--7--7--|
 --10--10-10-10-10-10----10--8--10--|--5--5--5--5--5--5----5--5--5--|
 --10--10-10-10-10-10----10--8--10--|-------------------------------|

PM PM PM PM PM PM PM PM
E S S S S Q E E E E S S S S Q E E E
 
 -------------------------------|-------------------------------|
 -------------------------------|-------------------------------|
 --7--7--7--7--7--7----7--7--7--|--8--8--8--8--8--8----8--8--8--|
 --7--7--7--7--7--7----7--7--7--|--8--8--8--8--8--8----8--8--8--|
 --5--5--5--5--5--5----5--5--5--|--6--6--6--6--6--6----6--6--6--|
 -------------------------------|-------------------------------|

PM PM PM PM PM PM PM PM
E S S S S Q E E E E S S S S Q E E E
 
 -----------------------------------|-------------------------------|
 -----------------------------------|-------------------------------|
 -----------------------------------|--7--7--7--7--7--7----7--7--7--|
 --10--10-10-10-10-10----10--8--10--|--7--7--7--7--7--7----7--7--7--|
 --10--10-10-10-10-10----10--8--10--|--5--5--5--5--5--5----5--5--5--|
 --10--10-10-10-10-10----10--8--10--|-------------------------------|

PM PM PM PM PM PM PM PM
E S S S S Q E E E E S S S S Q E E E
 
 -------------------------------|-------------------------------|
 -------------------------------|-------------------------------|
 --7--7--7--7--7--7----7--7--7--|--8--8--8--8--8--8----8--8--8--|
 --7--7--7--7--7--7----7--7--7--|--8--8--8--8--8--8----8--8--8--|
 --5--5--5--5--5--5----5--5--5--|--6--6--6--6--6--6----6--6--6--|
 -------------------------------|-------------------------------|

PM PM PM PM PM PM PM PM
E S S S S Q E E E E S S S S Q E E E
 
 -----------------------------------|-------------------------------|
 -----------------------------------|-------------------------------|
 -----------------------------------|--7--7--7--7--7--7----7--7--7--|
 --10--10-10-10-10-10----10--8--10--|--7--7--7--7--7--7----7--7--7--|
 --10--10-10-10-10-10----10--8--10--|--5--5--5--5--5--5----5--5--5--|
 --10--10-10-10-10-10----10--8--10--|-------------------------------|

PM PM PM PM PM PM PM PM
E S S S S Q E E E E S S S S Q E E E
 
 -------------------------------|-------------------------------|
 -------------------------------|-------------------------------|
 --7--7--7--7--7--7----7--7--7--|--8--8--8--8--8--8----8--8--8--|
 --7--7--7--7--7--7----7--7--7--|--8--8--8--8--8--8----8--8--8--|
 --5--5--5--5--5--5----5--5--5--|--6--6--6--6--6--6----6--6--6--|
 -------------------------------|-------------------------------|
 |-----3----| |-----3-----| 

Q Q Q Q Q Q
 
 -------------------------------------|
 -------------------------------------|
 -------------------------------------|
 --10----8----10----13----12----10----|
 --10----8----10----13----12----10----|
 --10----8----10----13----12----10----|

PM PM PM PM PM PM PM PM PM
S S S S S S S S S S S S S S S S
 
 -------------------------------------------|
 -------------------------------------------|
 -------------------------------------------|
 --0--0--0--------0--0--0--------0--0--0----|
 --0--0--0--------0--0--0--------0--0--0----|
 --0--0--0--------0--0--0--------0--0--0----|

PM PM PM PM PM PM PM PM PM PM PM
S S S S S S S S S S S S S S S S
 
 ---------------------------------------------|
 ---------------------------------------------|
 ---------------------------------------------|
 ------0--0--0--------0--0--0--0--0--0--0--0--|
 ------0--0--0--------0--0--0--0--0--0--0--0--|
 ------0--0--0--------0--0--0--0--0--0--0--0--|

PM PM PM PM PM PM PM PM PM
S S S S S S S S S S S S S S S S
 
 -------------------------------------------|
 -------------------------------------------|
 -------------------------------------------|
 --0--0--0--------0--0--0--------0--0--0----|
 --0--0--0--------0--0--0--------0--0--0----|
 --0--0--0--------0--0--0--------0--0--0----|

PM PM PM PM PM PM PM PM PM PM PM
S S S S S S S S S S S S S S S S
 
 ---------------------------------------------|
 ---------------------------------------------|
 ---------------------------------------------|
 ------0--0--0--------0--0--0--0--0--0--0--0--|
 ------0--0--0--------0--0--0--0--0--0--0--0--|
 ------0--0--0--------0--0--0--0--0--0--0--0--|

PM PM PM PM PM PM PM PM PM
S S S S S S S S S S S S S S S S
 
 -------------------------------------------|
 -------------------------------------------|
 -------------------------------------------|
 --0--0--0--L-L-L-0--0--0--L-L-L-0--0--0--L-|
 --0--0--0--L-L-L-0--0--0--L-L-L-0--0--0--L-|
 --0--0--0--L-L-L-0--0--0--L-L-L-0--0--0--L-|

PM PM PM PM PM PM PM PM PM PM PM
S S S S S S S S S S S S S S S S
 
 ---------------------------------------------|
 ---------------------------------------------|
 ---------------------------------------------|
 --L-L-0--0--0--L-L-L-0--0--0--0--0--0--0--0--|
 --L-L-0--0--0--L-L-L-0--0--0--0--0--0--0--0--|
 --L-L-0--0--0--L-L-L-0--0--0--0--0--0--0--0--|

PM PM PM PM PM PM PM PM PM PM PM PM PM
S S S S S S S S S S S S S S S S S S S S S S S S E E E E
 
 -------------------------------------------|---------------------------------|
 -------------------------------------------|---------------------------------|
 -------------------------------------------|---------------------------------|
 --0--0--0--------0--0--0--------0--0--0----|------0--0--0--------0-----------|
 --0--0--0--------0--0--0--------0--0--0----|------0--0--0--------0-----------|
 --0--0--0--------0--0--0--------0--0--0----|------0--0--0--------0-----------|

W H Q E S S W
 
 -------------------|-----------------------|-------------------|
 -------------------|-----------------------|-------------------|
 --7----------------|--L--------L----L--x-x-|-------------------|
 --7----------------|--L--------L----L--x-x-|--8----------------|
 --5----------------|--L--------L----L--x-x-|--8----------------|
 -------------------|-----------------------|--8----------------|

W W H Q E S S
 
 --------------------|-------------------|-----------------------|
 --------------------|-------------------|-----------------------|
 --------------------|--7----------------|--L--------L----L--x-x-|
 --10----------------|--7----------------|--L--------L----L--x-x-|
 --10----------------|--5----------------|--L--------L----L--x-x-|
 --10----------------|-------------------|-----------------------|

PM
W W Q E E Q E E
 
 --------------------|--------------------|------------------------|
 --------------------|--------------------|------------------------|
 --------------------|--------------------|--7----L--7--7----L-----|
 --10----------------|--12----------------|--7----L--7--7----L--0--|
 ---8----------------|--10----------------|--5----L--5--5----L--0--|
 ---8----------------|--10----------------|---------------------0--|

PM PM PM
E E Q E E Q Q E E Q E E
 
 ------------------------|-------------------------|
 ------------------------|-------------------------|
 ------------------------|-------------------------|
 --L--0--0----0--0--0----|--8----8--8--8----8--10--|
 --L--0--0----0--0--0----|--8----8--8--8----8--10--|
 --L--0--0----0--0--0----|--8----8--8--8----8--10--|

E E Q E E E E E E E E E E E E
 
 -------------------------------|--------------------------|
 -------------------------------|--------------------------|
 -------------------------------|--7--7--7--7--7--7--7--7--|
 --L--10--10----10--10--10--10--|--7--7--7--7--7--7--7--7--|
 --L--10--10----10--10--10--10--|--5--5--5--5--5--5--5--5--|
 --L--10--10----10--10--10--10--|--------------------------|

[E] [E] [E] [E] [E] [E] [E] [E] [E] [E] [E] [E] [E] [E] [E] [E]  
 
 --------------------------|----------------------------------|
 --------------------------|----------------------------------|
 --7--7--7--7--7--7--7--7--|----------------------------------|
 --7--7--7--7--7--7--7--7--|--10--10--10--10--10--10--10--10--|
 --5--5--5--5--5--5--5--5--|---8---8---8---8---8---8---8---8--|
 --------------------------|---8---8---8---8---8---8---8---8--|

PM PM PM PM PM PM PM PM PM PM
E E E E E E E E S S S S S S S S S S S S S S S S
 
 ----------------------------------|--------------------------------------------|
 ----------------------------------|--------------------------------------------|
 ----------------------------------|--------------------------------------------|
 --12--12--12--12--12--12--12--12--|--------------------------------------------|
 --10--10--10--10--10--10--10--10--|--8-5-5--5--5--5--8-5-5--5--5--5--8-5-5--5--|
 --10--10--10--10--10--10--10--10--|--------------------------------------------|

PM PM PM PM PM PM PM PM PM PM
S S S S S S S S S S S S S S S S
 
 --------------------------------------------|
 --------------------------------------------|
 --------------------------------------------|
 --------------------------------------------|
 --5--5--8-5-5--5--5--5--5-3-3--3--7-3-5--5--|
 --------------------------------------------|

PM PM PM PM PM PM PM PM PM PM
S S S S S S S S S S S S S S S S
 
 --------------------------------------------|
 --------------------------------------------|
 --------------------------------------------|
 --------------------------------------------|
 --8-5-5--5--5--5--8-5-5--5--5--5--8-5-5--5--|
 --------------------------------------------|

PM PM PM PM PM PM PM PM PM PM
S S S S S S S S S S S S S S S S
 
 --------------------------------------------|
 --------------------------------------------|
 --------------------------------------------|
 --------------------------------------------|
 --5--5--8-5-5--5--5--5--5-3-3--3--7-3-5--5--|
 --------------------------------------------|

PM PM PM PM PM PM PM PM PM PM
S S S S S S S S S S S S S S S S
 
 --------------------------------------------|
 --------------------------------------------|
 --------------------------------------------|
 --------------------------------------------|
 --8-5-5--5--5--5--8-5-5--5--5--5--8-5-5--5--|
 --------------------------------------------|

PM PM PM PM PM PM PM PM PM PM
S S S S S S S S S S S S S S S S
 
 --------------------------------------------|
 --------------------------------------------|
 --------------------------------------------|
 --------------------------------------------|
 --5--5--8-5-5--5--5--5--5-3-3--3--7-3-5--5--|
 --------------------------------------------|

PM PM PM PM PM PM PM PM PM PM
S S S S S S S S S S S S S S S S
 
 --------------------------------------------|
 --------------------------------------------|
 --------------------------------------------|
 --------------------------------------------|
 --8-5-5--5--5--5--8-5-5--5--5--5--8-5-5--5--|
 --------------------------------------------|

PM PM PM PM PM PM PM PM PM PM
S S S S S S S S S S S S S S S S E E E E E E E E
 
 --------------------------------------------|--------------------------|-----||
 --------------------------------------------|--------------------------|-----||
 --------------------------------------------|--------------------------|-----||
 --------------------------------------------|--------------------------|-----||
 --5--5--8-5-5--5--5--5--5-3-3--3--7-3-5--5--|--------------------------|-----||
 --------------------------------------------|--0-----------------------|-----||

Guitar 2
PM PM PM PM PM PM PM PM PM PM
H H S S S S S S S S S S S S S S S S
 
 D||-----------------------|--------------------------------------------|
 A||-----------------------|--------------------------------------------|
 F||-----------------------|--------------------------------------------|
 C||-----------/12\--------|--------------------------------------------|
 G||-----------/12\--------|--8-5-5--5--5--5--8-5-5--5--5--5--8-5-5--5--|
 C||-----------/12\--------|--------------------------------------------|

PM PM PM PM PM PM PM PM PM PM
S S S S S S S S S S S S S S S S
 
 --------------------------------------------|
 --------------------------------------------|
 --------------------------------------------|
 --------------------------------------------|
 --5--5--8-5-5--5--5--5--5-3-3--3--7-3-5--5--|
 --------------------------------------------|

PM PM PM PM PM PM PM PM PM PM
S S S S S S S S S S S S S S S S
 
 --------------------------------------------|
 --------------------------------------------|
 --------------------------------------------|
 --------------------------------------------|
 --8-5-5--5--5--5--8-5-5--5--5--5--8-5-5--5--|
 --------------------------------------------|

( Tab from: http://www.guitartabs.cc/tabs/b/bullet_for_my_valentine/breaking_point_tab_ver_2.html )
PM PM PM PM PM PM PM PM PM PM
S S S S S S S S S S S S S S S S
 
 --------------------------------------------|
 --------------------------------------------|
 --------------------------------------------|
 --------------------------------------------|
 --5--5--8-5-5--5--5--5--5-3-3--3--7-3-5--5--|
 --------------------------------------------|

PM PM PM PM PM PM PM PM PM PM
S S S S S S S S S S S S S S S S
 
 --------------------------------------------|
 --------------------------------------------|
 --------------------------------------------|
 --------------------------------------------|
 --8-5-5--5--5--5--8-5-5--5--5--5--8-5-5--5--|
 --------------------------------------------|

PM PM PM PM PM PM PM PM PM PM
S S S S S S S S S S S S S S S S
 
 --------------------------------------------|
 --------------------------------------------|
 --------------------------------------------|
 --------------------------------------------|
 --5--5--8-5-5--5--5--5--5-3-3--3--7-3-5--5--|
 --------------------------------------------|

PM PM PM PM PM PM PM PM PM PM
S S S S S S S S S S S S S S S S
 
 --------------------------------------------|
 --------------------------------------------|
 --------------------------------------------|
 --------------------------------------------|
 --8-5-5--5--5--5--8-5-5--5--5--5--8-5-5--5--|
 --------------------------------------------|

PM PM PM PM PM PM PM PM PM PM
S S S S S S S S S S S S S S S S
 
 --------------------------------------------|
 --------------------------------------------|
 --------------------------------------------|
 --------------------------------------------|
 --5--5--8-5-5--5--5--5--5-3-3--3--7-3-5--5--|
 --------------------------------------------|

PM PM PM PM PM PM PM PM PM PM
S S S S S S S S S S S S S S S S
 
 --------------------------------------------|
 --------------------------------------------|
 --------------------------------------------|
 --------------------------------------------|
 --8-5-5--5--5--5--8-5-5--5--5--5--8-5-5--5--|
 --------------------------------------------|

PM PM PM PM PM PM PM PM PM PM
S S S S S S S S S S S S S S S S
 
 --------------------------------------------|
 --------------------------------------------|
 --------------------------------------------|
 --------------------------------------------|
 --5--5--8-5-5--5--5--5--5-3-3--3--7-3-5--5--|
 --------------------------------------------|

PM PM PM PM PM PM PM PM PM PM
S S S S S S S S S S S S S S S S
 
 --------------------------------------------|
 --------------------------------------------|
 --------------------------------------------|
 --------------------------------------------|
 --8-5-5--5--5--5--8-5-5--5--5--5--8-5-5--5--|
 --------------------------------------------|

PM PM PM PM PM PM PM PM PM PM
S S S S S S S S S S S S S S S S
 
 --------------------------------------------|
 --------------------------------------------|
 --------------------------------------------|
 --------------------------------------------|
 --5--5--8-5-5--5--5--5--5-3-3--3--7-3-5--5--|
 --------------------------------------------|

PM PM PM PM PM PM PM PM PM PM
S S S S S S S S S S S S S S S S
 
 --------------------------------------------|
 --------------------------------------------|
 --------------------------------------------|
 --------------------------------------------|
 --8-5-5--5--5--5--8-5-5--5--5--5--8-5-5--5--|
 --------------------------------------------|

PM PM PM PM PM PM PM PM PM PM
S S S S S S S S S S S S S S S S
 
 --------------------------------------------|
 --------------------------------------------|
 --------------------------------------------|
 --------------------------------------------|
 --5--5--8-5-5--5--5--5--5-3-3--3--7-3-5--5--|
 --------------------------------------------|

PM PM PM PM PM PM PM PM PM PM PM
 
 |----3----| |----3----| 

S S S S S S S S S S S S Q Q Q Q Q Q Q
 
 ------------------------------------------|--------------------------------|
 ------------------------------------------|--------------------------------|
 ------------------------------------------|--------------------------------|
 ----------------------------------/12\----|--0----3----5----6----5----3----|
 --8-5-5--5--5--5--8-5-5--5--5--5--/12\----|--0----3----5----6----5----3----|
 ----------------------------------/12\----|--0----3----5----6----5----3----|

PM PM PM PM PM
E E E E E E E E E E E E S S S S S S S S
 
 --------------------------|------------------------------|
 --------------------------|------------------------------|
 --------------------------|------------------------------|
 --0--------0--------0-----|-----0-----0------------------|
 --0--------0--------0-----|-----0-----0--0-3-0-3-6-3-0-3-|
 --0--------0--------0-----|-----0-----0------------------|

PM PM PM PM PM
E E E E E E E E E E E E S S S S S S S S
 
 --------------------------|------------------------------|
 --------------------------|------------------------------|
 --------------------------|------------------------------|
 --0--------0--------0-----|-----0-----0------------------|
 --0--------0--------0-----|-----0-----0------------------|
 --0--------0--------0-----|-----0-----0--0-3-0-3-6-3-0-3-|

PM PM PM PM PM
E E E E E E E E E E E E S S S S S S S S
 
 --------------------------|------------------------------|
 --------------------------|------------------------------|
 --------------------------|------------------------------|
 --0--------0--------0-----|-----0-----0------------------|
 --0--------0--------0-----|-----0-----0--0-3-0-3-6-3-0-3-|
 --0--------0--------0-----|-----0-----0------------------|

PM PM PM PM PM
 
 |----3----| |----3----| 

E E E E E E S S S S Q Q Q Q Q Q
 
 ----------------------------|--------------------------------|
 ----------------------------|--------------------------------|
 --------------------x-x-x-x-|--------------------------------|
 --0--------0--------x-x-x-x-|--0----3----5----6----5----3----|
 --0--------0--------x-x-x-x-|--0----3----5----6----5----3----|
 --0--------0----------------|--0----3----5----6----5----3----|

PM PM PM PM PM PM
E E E E E E E E E S S E E S S S S S S S S
 
 --------------------------|---------------------------------|
 --------------------------|---------------------------------|
 --------------------------|---------------------------------|
 --0--------0--------0-----|-----0--0--0---------------------|
 --0--------0--------0-----|-----0--0--0-----0-3-0-3-6-3-0-3-|
 --0--------0--------0-----|-----0--0--0---------------------|

PM PM PM PM PM
E E E E E E E E E E E E S S S S S S S S
 
 --------------------------|------------------------------|
 --------------------------|------------------------------|
 --------------------------|------------------------------|
 --0--------0--------0-----|-----0-----0------------------|
 --0--------0--------0-----|-----0-----0------------------|
 --0--------0--------0-----|-----0-----0--0-3-0-3-6-3-0-3-|

PM PM PM PM PM PM
E E E E E E E E E S S E E S S S S S S S S
 
 --------------------------|---------------------------------|
 --------------------------|---------------------------------|
 --------------------------|---------------------------------|
 --0--------0--------0-----|-----0--0--0---------------------|
 --0--------0--------0-----|-----0--0--0-----0-3-0-3-6-3-0-3-|
 --0--------0--------0-----|-----0--0--0---------------------|

PM PM
 
 |----3----| |----3----| 

E E E E E E S S S S Q Q Q Q Q Q
 
 ----------------------------|--------------------------------|
 ----------------------------|--------------------------------|
 --------------------x-x-x-x-|--------------------------------|
 --0--------0--------x-x-x-x-|--0----3----5----6----5----3----|
 --0--------0--------x-x-x-x-|--0----3----5----6----5----3----|
 --0--------0----------------|--0----3----5----6----5----3----|

PM PM PM PM PM PM PM PM
S S S S S S S S S S S S S S S S S S S S S S S S S S S S Q
 
 ----------------------------------------|------------------------------------|
 ----------------------------------------|------------------------------------|
 ----------------------------------------|--------------------x-x-x-x---------|
 --0--0----------0--0----------0--0------|------0--0----------x-x-x-x-/12\----|
 --0--0----------0--0----------0--0------|------0--0----------x-x-x-x-/12\----|
 --0--0----------0--0----------0--0------|------0--0------------------/12\----|

W H Q E S S W
 
 -------------------|-----------------------|-------------------|
 -------------------|-----------------------|-------------------|
 --7----------------|--L--------L----L--x-x-|-------------------|
 --7----------------|--L--------L----L--x-x-|--8----------------|
 --5----------------|--L--------L----L--x-x-|--8----------------|
 -------------------|-----------------------|--8----------------|

W W H Q E S S
 
 --------------------|-------------------|-----------------------|
 --------------------|-------------------|-----------------------|
 --------------------|--7----------------|--L--------L----L--x-x-|
 --10----------------|--7----------------|--L--------L----L--x-x-|
 --10----------------|--5----------------|--L--------L----L--x-x-|
 --10----------------|-------------------|-----------------------|

W W
 
 --------------------|--------------------|
 --------------------|--------------------|
 --------------------|--------------------|
 --10----------------|--12----------------|
 ---8----------------|--10----------------|
 ---8----------------|--10----------------|

PM PM PM PM PM PM PM PM PM PM
S S S S S S S S S S S S S S S S
 
 --------------------------------------------|
 --------------------------------------------|
 --------------------------------------------|
 --------------------------------------------|
 --8-5-5--5--5--5--8-5-5--5--5--5--8-5-5--5--|
 --------------------------------------------|

PM PM PM PM PM PM PM PM PM PM
S S S S S S S S S S S S S S S S
 
 --------------------------------------------|
 --------------------------------------------|
 --------------------------------------------|
 --------------------------------------------|
 --5--5--8-5-5--5--5--5--5-3-3--3--7-3-5--5--|
 --------------------------------------------|

PM PM PM PM PM PM PM PM PM PM PM
 
 |----3----| |----3----| 

S S S S S S S S S S S S Q Q Q Q Q Q Q
 
 ------------------------------------------|--------------------------------|
 ------------------------------------------|--------------------------------|
 ------------------------------------------|--------------------------------|
 ----------------------------------/12\----|--0----3----5----6----5----3----|
 --8-5-5--5--5--5--8-5-5--5--5--5--/12\----|--0----3----5----6----5----3----|

Important: The song above is NOT stored on the Chordie server. The original song is hosted at www.guitartabs.cc. Chordie works as a search engine and provides on-the-fly formatting. Chordie does not index songs against artists'/composers' will. To remove this song please click here.

Text color:
Chord color:
Chord grids: 
Font size:    
Page size: 

E
Rate #1 of 2 versions

Jango Player

Login - add to songbook

SHARE PAGE  



You need to log in to post comments