Guitar Tabs, Chords and Lyrics
Update 25:10. 13:00. Site is back up running again. Songbooks are recovered. Woring on getting search back up..


Saints & Sinners   Bullet for My Valentine

 
 |-----------------------------------------------|
 |-----------------------------------------------|
 |-----------------------------7x--4-3-------4-3-|
 |-2---------2---------------------2-2--2--2-2-2-|
 |-2-2--2--2-2-2--2--2-2-2-2-2-----2-2--2--2-2-2-|
 |-2-2--2--2-2-2--2--2-2-2-2-2-----2-2--2--2-2-2-|

 


 ^ ^ ^ ^ ^ ^ ^ ^ ^ ^ ^


 


 Gtr. 2


 

 
 |------------------------------------------------------------------------|
 |------------------------------------------------------------------------|
 |------------------------------------------------------------------------|
 |-------9-9-9-8-8-8-8-8-8-8-8-8-8-------9-9-9----------------------------|
 |-7-7-7---------------------------7-7-7-------10-10-10-10-10-10-9-9-9-9--|
 |------------------------------------------------------------------------|

 


 ^^^^^^^^^^^^^^^^^^^^^^^^^^^^^^^^^^^^^^^^^^^^^^^^^^^^^^^^^^^^^^^^^^^^^


 


 

 
 |----------------------------------------------------------------------|
 |----------------------------------------------------------------------|
 |----------------------------------------------------------------------|
 |-------9-9-9-8-8-8-8-8-8-8-8-8-8-------9-9-9-8-8-8-8-8-8--------------|
 |-7-7-7---------------------------7-7-7-------------------10-10-10-10--|
 |----------------------------------------------------------------------|

 


 ^^^^^^^^^^^^^^^^^^^^^^^^^^^^^^^^^^^^^^^^^^^^^^^^^^^^^^^^^^^^^^^^^^^


 


 

 
 |-------------------------------------------------------------------------|
 |-------------------------------------------------------------------------|
 |-------------------------------------------------------------------------|
 |-------9-9-9-8-8-8--------------------------9-9-9-8-8-8------------------|
 |-7-7-7-------------10-10-10-7-7-10-10-7-7-7-------------10-10-10-7-7-7-7-|
 |-------------------------------------------------------------------------|
 |--------------------------------------------------------------|
 |--------------------------------------------------------------|
 |--------------------------------------------------------------|
 |-------9-9-9-8-8-8--------------------9-8--8--8-9-8-----------|
 |-7-7-7-------------10-10-10-7-7-10-10-7-7--7--7-7-7-----------|
 |--------------------------------------------------------------|

 


 


 Both Guitars


 


 

 
 |-------------------------------------------------------------------------|
 |-------------------------------------------------------------------------|
 |-------------------------------------------------------------------------|
 |----------0h2b-------0h2p---------------------0h2------------------------|
 |-0-1-----------------------------------------------2--2------------------|
 |-0-1-0h2--------0h2--------2-2-2--2-2-2--0h2-------2--2-222-332-222-770--|

 


 ^ ^ ^ ^ ^ ^ ^^^ ^^^ ^^^ ^^^


 


 

 
 |-------------------------------------------------------------------------|
 |-------------------------------------------------------------------------|
 |-------------------------------------5-5-5-------7-7-7-------10-10-10----|
 |------0h2b-------0h2p----------------5-5-5-5-5-5-7-7-7-7-7-7-10-10-10----|
 |-------------------------------------3-3-3-5-5-5-5-5-5-7-7-7-8--8--8-----|
 |-0h2--------0h2--------2-2-2--2-2-2--------5-5-5-------7-7-7-------------|

 


 ^ ^ ^ ^ ^ ^


 


 [Verse] 


 


 

 
 |------------------------------------------------------------------------|
 |------------------------------------------------------------------------|
 |------------------------------------------------------------------------|
 |-2--2--9-9-8-8-8-8---------------------2--2--9-9-8-8-8-8----------------|
 |-2--2--------------10-10-10-7-7-10-10--2--2--------------10-10-10-7-0-1-|
 |-2--2----------------------------------2--2-------------------------0-1-|

 


 ^^^^^^^^^^^^^^^^^^^^^^^^^^^^^^ ^^^^^^^^^^^^^^^^^^^^^^


 gTR.1


 

 
 |------------------------------------------------------------------------|
 |------------------------------------------------------------------------|
 |------------------------------------------------------------------------|
 |-2--2--9-9-8-8-8-8---------------------2--2--9-9-9-8-8-8----------------|
 |-2--2--------------10-10-10-7-7-10-10--2--2--------------10-10-10-9*~~~-|
 |-2--2----------------------------------2--2-----------------------------|

 


 ^^^^^^^^^^^^^^^^^^^^^^^^^^^^^^


 


 gTR.2


 

 
 |---------------------------|
 |---------------------------|
 |-9-9-9-8-8-8---------------|
 |-------------10-10-10-9*~~-|
 |---------------------------|
 |---------------------------|

 


 


 [Post Verse] 


 [ Tab from: bttp://www.guitartabs.cc/tabs/b/bullet_for_my_valentine/saints_sinners_tab.btml ] 


 Both Gtrs.


 

 
 |--------------------------------------------------------|
 |--------------------------------------------------------|
 |--------------------------------------------------------|
 |--------------------------------------------------------| 2x
 |-2-2-2--2-2-2--2-2-2--2-2-2--2-2-2--2-2-2--2-2-2--0--1--|
 |-2-2-2--2-2-2--2-2-2--2-2-2--2-2-2--2-2-2--2-2-2--0--1--|

 


 


 [Pre-Cborus] 


 


 

 
 |--------------------------------------------------------|
 |------~~~6~~~~~~~~~~~~~~~~~~~6~~~~~~~-------------------|
 |-----5~~~~~~~5~~~~~~~~~~~5~~~~~~~5~~~-------------------|
 |-3~~~~~~~~~~~~~~~~~~~3~~~~~~~~~~~~~~~-------------------|
 |-3~~~~~~~~~~~~~~~~~~~~~~~~~~~~~~~~~~~3-3-3-3-3-3-3-3----|
 |-3~~~~~~~~~~~~~~~~~~~~~~~~~~~~~~~~~~~3-3-3-3-3-3-3-3----|

 


 ^ ^ ^ ^ ^ ^ ^ ^


 


 [Cborus] 


 


 

 
 |---------------------------------------------------------------------|
 |---------------------------------------------------------------------|
 |---------------------------------------------------------------------|
 |------0h2b-------0h2p---------------------0h2------------------------|
 |-----------------------------------------------2--2------------------|
 |-0h2--------0h2--------2-2-2--2-2-2--0h2-------2--2-222-332-222-770--|

 


 ^ ^ ^ ^ ^ ^ ^^^ ^^^ ^^^ ^^^


 


 

 
 |---------------------------------------------------------------------|
 |---------------------------------------------------------------------|
 |---------------------------------------------------------------------|
 |------0h2b-------0h2p---------------------0h2------------------------|
 |-----------------------------------------------2--2-------------0-1--|
 |-0h2--------0h2--------2-2-2--2-2-2--0h2-------2--2-------------0-1--|

 


 ^ ^ ^ ^ ^ ^


 


 

 
 |---------------------------------------------------------------------|
 |---------------------------------------------------------------------|
 |---------------------------------------------------------------------|
 |------0h2b-------0h2p---------------------0h2------------------------|
 |-----------------------------------------------2--2------------------|
 |-0h2--------0h2--------2-2-2--2-2-2--0h2-------2--2-222-332-222-770--|

 


 ^ ^ ^ ^ ^ ^ ^^^ ^^^ ^^^ ^^^


 


 

 
 |-------------------------------------------------------------------------|
 |-------------------------------------------------------------------------|
 |-------------------------------------5-5-5-------7-7-7-------10-10-10----|
 |------0h2b-------0h2p----------------5-5-5-5-5-5-7-7-7-7-7-7-10-10-10----|
 |-------------------------------------3-3-3-5-5-5-5-5-5-7-7-7-8--8--8-----|
 |-0h2--------0h2--------2-2-2--2-2-2--------5-5-5-------7-7-7-------------|

 


 ^ ^ ^ ^ ^ ^


 


 Repeat:-


 


 -[Verse]


 -[Post Verse]


 -[Pre Cborus]


 -[Cborus]


 


 

 
 |-------------------------------------------|
 |-------------------------------------------|
 |-------------------------------------------|
 |-2~~~~~~~~~~~~~~~~~~~~~~~~~----------------|
 |-2~~~~~~~~~~~~~~~~~~~~~~~~~-2-2-2-2-2-2-2--|
 |-2~~~~~~~~~~~~~~~~~~~~~~~~~-2-2-2-2-2-2-2--|

 


 ^ ^ ^ ^ ^ ^ ^


 [SOLO] rHYTHM


 


 

 
 |-------------------------------------------------------|
 |-------------------------------------------------------|
 |-------------------------------------------------------| 2x
 |-------------------------------------------------------|
 |-2-2-2--2-2-2--2-2-2--2-2-2--2-2-2--2-2-2--3--3--0--0--|
 |-2-2-2--2-2-2--2-2-2--2-2-2--2-2-2--2-2-2--3--3--0--0--|
 |---------------------------------------------------|
 |---------------------------------------------------|
 |---------------------------------------------------|
 |-3~~~~~~~~~~~~~~~~3~~~~~~~~~-----------------------|
 |-3~~~~~~~~~~~~~~~~3~~~~~~~~~-5*5*5*5*7*7*5*5*------|
 |-3~~~~~~~~~~~~~~~~3~~~~~~~~~-----------------------|
 |---------------------------------------------------------------------|
 |---------------------------------------------------------------------|
 |---------------------------------------------------------------------|
 |------0h2b-------0h2p---------------------0h2------------------------|
 |-----------------------------------------------2--2------------------|
 |-0h2--------0h2--------2-2-2--2-2-2--0h2-------2--2-2-2-2-2-2-2-2-2--|

 


 ^ ^ ^ ^ ^ ^ ^ ^ ^ ^ ^ ^ ^ ^


 


 

 
 |-------------------------------------------------------------------------|
 |-------------------------------------------------------------------------|
 |-------------------------------------5-5-5-------7-7-7-------10-10-10----|
 |------0h2b-------0h2p----------------5-5-5-5-5-5-7-7-7-7-7-7-10-10-10----|
 |-------------------------------------3-3-3-5-5-5-5-5-5-7-7-7-8--8--8-----|
 |-0h2--------0h2--------2-2-2--2-2-2--------5-5-5-------7-7-7-------------|

 


 ^ ^ ^ ^ ^ ^


 


 

 
 |-------------------------------------------------------|
 |-------------------------------------------------------|
 |-----------------------------3x------------------------|
 |-2---------2---------------------2-2--2--2-2-2--2--2-2-|
 |-2-2--2--2-2-2--2--2-2-2-2-2-----2-2--2--2-2-2--2--2-2-|
 |-2-2--2--2-2-2--2--2-2-2-2-2-----2-2--2--2-2-2--2--2-2-|

 


 ^ ^ ^ ^ ^ ^ ^ ^ ^ ^


 


 Repeat:-


 


 -[Cborus]


 


 [Outro] 


 


 Both Gtrs.


 

 
 |---------------------------------------------------------|
 |---------------------------------------------------------|
 |---------------------------------------------------------|
 |------------------------------3x----------------------2--|
 |-3-2--2--2-3-2--2--2-5-3-0-2------3-2--2--0-3-2--2--0-2--|
 |-3-2--2--2-3-2--2--2-5-3-0-2------3-2--2--0-3-2--2--0-2--|


Important: The song above is NOT stored on the Chordie server. The original song is hosted at www.guitartabs.cc. Chordie works as a search engine and provides on-the-fly formatting. Chordie does not index songs against artists'/composers' will. To remove this song please click here.

This song is displayed as text-only. Transposing and tuning is only available for chordpro-songs.
Rate #1 of 1 versions

Login - add to songbook

SHARE PAGE  



You need to log in to post comments