Guitar Tabs, Chords and Lyrics
Server problems seems to be fixed. Chordie has been experiencing problems with songs disappearing. These issues now seems to be fixed, but still verifying the fix. If you find anything strange, please email admin@chordie.com.


Cyanide  Burning the Masses

This is the version of Cyanide on "Volatile Existence", and not "Mind Control".
Arde
PM PM PM PM PM PM PM PM PM PM PM PM
W S S S S S S S S S S S S S S S S
 
 D||--------------------|------------------------------------------------|
 A||--------------------|------------------------------------------------|
 F||--------------------|------------------------------------------------|
 C||--------------------|------------------------------------------------|
 G||--------------------|------------------------------------------------|
 C||--5~----------------|--8--7--5--5--8--7--5--5--8--7--5--5--8-10-7-10-|

PM PM PM PM PM PM PM PM
S S S S S S S S S S S S S S S S
 
 --------------------------------------------|
 --------------------------------------------|
 --------------------------------------------|
 -----------------------------------7-10-----|
 -------------------------------6-9------6-9-|
 --8--7--5--5--8--7--5--5--7-10--------------|

PM PM PM PM PM PM PM PM PM PM PM PM
S S S S S S S S S S S S S S S S
 
 ------------------------------------------------|
 ------------------------------------------------|
 ------------------------------------------------|
 ------------------------------------------------|
 ------------------------------------------------|
 --8--7--5--5--8--7--5--5--8--7--5--5--8-10-7-10-|

PM PM PM PM PM PM PM PM
S S S S S S S S E E E E
 
 --------------------------------------|
 --------------------------------------|
 --------------------------------------|
 --------------------------------------|
 --------------------------------------|
 --8--7--5--5--8--7--5--5--7--5--4--1--|

PM PM PM PM PM PM
 
 |-3-| |-3-| |-3-| |-3-| 

E S S S S S S S S E S S S S S S S S
 
 --------------------------------------------|
 --------------------------------------------|
 --------------------------------------------|
 --------------------------------------------|
 -----------------3-4-6----------------3-5-6-|
 --3--3--3--3-4-6-------3--3--3--3-4-6-------|

PM PM PM PM PM PM PM PM PM
|-3-| |-3-|
E S S S S S S E S S S S S S S S
 
 --------------------------------------------|
 --------------------------------------------|
 --------------------------------------------|
 --3-----------------------------------------|
 --------------------------------------3-5-6-|
 -----3--3--3--3--3--3--3--3--3--3-4-6-------|

PM PM PM PM PM PM
 
 |-3-| |-3-| |-3-| |-3-| 

E S S S S S S S S E S S S S S S S S
 
 --------------------------------------------|
 --------------------------------------------|
 --------------------------------------------|
 --------------------------------------------|
 -----------------3-4-6----------------3-5-6-|
 --3--3--3--3-4-6-------3--3--3--3-4-6-------|

PM PM PM PM PM PM PM PM PM
|-3-| |-3-|
E S S S S S S E S S S S S S S S
 
 --------------------------------------------|
 --------------------------------------------|
 --------------------------------------------|
 --3-----------------------------------------|
 --------------------------------------3-5-6-|
 -----3--3--3--3--3--3--3--3--3--3-4-6-------|

PM PM PM PM PM PM
 
 |-3-| |-3-| |-3-| |-3-| 

E S S S S S S S S E S S S S S S S S
 
 --------------------------------------------|
 --------------------------------------------|
 --------------------------------------------|
 --------------------------------------------|
 -----------------6-7-9----------------6-7-9-|
 --6--6--6--6-7-9-------6--6--6--6-7-9-------|

PM PM PM PM PM PM PM PM PM
|-3-| |-3-|
E S S S S S S E S S S S S S S S
 
 --------------------------------------------|
 --------------------------------------------|
 --------------------------------------------|
 --6-----------------------------------------|
 --------------------------------------6-7-9-|
 -----6--6--6--6--6--6--6--6--6--6-7-9-------|

PM PM PM PM PM PM
 
 |-3-| |-3-| |-3-| |-3-| 

E S S S S S S S S E S S S S S S S S
 
 --------------------------------------------|
 --------------------------------------------|
 --------------------------------------------|
 --------------------------------------------|
 -----------------6-7-9----------------6-7-9-|
 --6--6--6--6-7-9-------6--6--6--6-7-9-------|

PM PM PM PM PM PM PM PM PM PM PM
|-3-| |-3-|
E S S S S S S E S S S S S S S S Q Q E E E E
 
 --------------------------------------------|------------------------|
 --------------------------------------------|------------------------|
 --------------------------------------------|------------------------|
 --6-----------------------------------------|------------------------|
 --------------------------------------6-7-9-|------------------------|
 -----6--6--6--6--6--6--6--6--6--6-7-9-------|--8----7----8--7--5--4--|

PM PM PM PM
Q Q E E E E Q Q E E E E
 
 ----------------------------|------------------------|
 ----------------------------|------------------------|
 ----------------------------|------------------------|
 ----------------------------|------------------------|
 ----------------------------|------------------------|
 --12----11----12--11--8--7--|--8----7----8--7--5--4--|

TP TP TP TP TP TP
Q Q E E E E Q Q E E E E
 
 ----------------------------|------------------------|
 ----------------------------|------------------------|
 ----------------------------|------------------------|
 ----------------------------|------------------------|
 ----------------------------|------------------------|
 --12----11----12--11--8--7--|--8----7----8--7--5--4--|

TP TP TP TP TP TP TP TP TP TP TP TP
Q Q E E E E Q Q E E E E
 
 ----------------------------|------------------------|
 ----------------------------|------------------------|
 ----------------------------|------------------------|
 ----------------------------|------------------------|
 ----------------------------|------------------------|
 --12----11----12--11--8--7--|--8----7----8--7--5--4--|

TP TP TP TP TP TP PM PMPM PM PM PMPM PM PM PMPM PM
Q Q E E E E S S S S S S S S S S S S S S S S
 
 ----------------------------|--------------------------------------------------|
 ----------------------------|--------------------------------------------------|
 ----------------------------|--------------------------------------------------|
 ----------------------------|--------------------------------------------------|
 ----------------------------|--------------------------------------------------|
 --12----11----12--11--8--7--|--12-10-8--8--12-10-8--8--12-10-8--8--12-13-10-13-|

PM PMPM PM PM PMPM PM
S S S S S S S S S S S S S S S S
 
 ------------------------------------------------|
 ------------------------------------------------|
 ------------------------------------------------|
 -------------------------------------10-13------|
 --------------------------------9-12-------12-9-|
 --12-10-8--8--12-10-8--8--10-13-----------------|

PM PMPM PM PM PMPM PM PM PMPM PM
S S S S S S S S S S S S S S S S
 
 --------------------------------------------------|
 --------------------------------------------------|
 --------------------------------------------------|
 --------------------------------------------------|
 --------------------------------------------------|
 --12-10-8--8--12-10-8--8--12-10-8--8--12-13-10-13-|

PM PMPM PM PM PMPM PM
S S S S S S S S E E E E
 
 ---------------------------------------|
 ---------------------------------------|
 ---------------------------------------|
 ---------------------------------------|
 ---------------------------------------|
 --12-10-8--8--12-10-8--8--10--8--7--4--|

PM PM PM PM PM PM
 
 |-3-| |-3-| |-3-| |-3-| 

E S S S S S S S S E S S S S S S S S
 
 --------------------------------------------|
 --------------------------------------------|
 --------------------------------------------|
 --------------------------------------------|
 -----------------3-4-6----------------3-5-6-|
 --3--3--3--3-4-6-------3--3--3--3-4-6-------|

PM PM PM PM PM PM PM PM PM
|-3-| |-3-|
E S S S S S S E S S S S S S S S
 
 --------------------------------------------|
 --------------------------------------------|
 --------------------------------------------|
 --3-----------------------------------------|
 --------------------------------------3-5-6-|
 -----3--3--3--3--3--3--3--3--3--3-4-6-------|

PM PM PM PM PM PM
 
 |-3-| |-3-| |-3-| |-3-| 

E S S S S S S S S E S S S S S S S S
 
 --------------------------------------------|
 --------------------------------------------|
 --------------------------------------------|
 --------------------------------------------|
 -----------------3-4-6----------------3-5-6-|
 --3--3--3--3-4-6-------3--3--3--3-4-6-------|

PM PM PM PM PM PM PM PM PM
|-3-| |-3-|
E S S S S S S E S S S S S S S S
 
 --------------------------------------------|
 --------------------------------------------|
 --------------------------------------------|
 --3-----------------------------------------|
 --------------------------------------3-5-6-|
 -----3--3--3--3--3--3--3--3--3--3-4-6-------|

PM PM PM PM PM PM
 
 |-3-| |-3-| |-3-| |-3-| 

E S S S S S S S S E S S S S S S S S
 
 --------------------------------------------|
 --------------------------------------------|
 --------------------------------------------|
 --------------------------------------------|
 -----------------6-7-9----------------6-7-9-|
 --6--6--6--6-7-9-------6--6--6--6-7-9-------|

PM PM PM PM PM PM PM PM PM
|-3-| |-3-|
E S S S S S S E S S S S S S S S
 
 --------------------------------------------|
 --------------------------------------------|
 --------------------------------------------|
 --6-----------------------------------------|
 --------------------------------------6-7-9-|
 -----6--6--6--6--6--6--6--6--6--6-7-9-------|

PM PM PM PM PM PM
 
 |-3-| |-3-| |-3-| |-3-| 

E S S S S S S S S E S S S S S S S S
 
 --------------------------------------------|
 --------------------------------------------|
 --------------------------------------------|
 --------------------------------------------|
 -----------------6-7-9----------------6-7-9-|
 --6--6--6--6-7-9-------6--6--6--6-7-9-------|

PM PM PM PM PM PM PM PM PM
|-3-| |-3-|
E S S S S S S E S S S S S S S S Q Q Q Q
 
 --------------------------------------------|----------------------|
 --------------------------------------------|----------------------|
 --------------------------------------------|----------------------|
 --6-----------------------------------------|----------------------|
 --------------------------------------6-7-9-|----------------------|
 -----6--6--6--6--6--6--6--6--6--6-7-9-------|--8----7----8----7----|

S S S S S S S S S S S S S S S S
 
 ------------------------------------------|
 ------------------------------------------|
 ------------------------------------------|
 ------------11-8----------------11-8------|
 -------7-10------10-7------7-10------10-7-|
 --8-12----------------8-12----------------|

S S S S S S S S S S S S S S S S
 
 --------------------------------------|
 --------------------------------------|
 --------------------------------------|
 ------------11-8----------------------|
 -------7-10------10-7-----------------|
 --8-12----------------8-8-8-8-8-8-8-8-|

S S S S S S S S S S S S S S S S
 
 ------------------------------------------|
 ------------------------------------------|
 ------------------------------------------|
 ------------11-8----------------11-8------|
 -------7-10------10-7------7-10------10-7-|
 --8-12----------------8-12----------------|

S S S S S S S S S S S S S S S S
 
 --------------------------------------|
 --------------------------------------|
 --------------------------------------|
 ------------11-8----------------------|
 -------7-10------10-7-----------------|
 --8-12----------------8-8-8-8-8-8-8-8-|

S S S S S S S S S S S S S S S S
 
 ----------------------------------------------|
 ----------------------------------------------|
 ----------------------------------------------|
 -------------13-10-----------------13-10------|
 --------9-12-------12-9-------9-12-------12-9-|
 --10-13-----------------10-13-----------------|

S S S S S S S S S S S S S S S S
 
 ------------------------------------------------|
 ------------------------------------------------|
 ------------------------------------------------|
 -------------13-10------------------------------|
 --------9-12-------12-9-------------------------|
 --10-13-----------------10-10-10-10-10-10-10-10-|

S S S S S S S S S S S S S S S S
 
 ----------------------------------------------|
 ----------------------------------------------|
 ----------------------------------------------|
 -------------13-10-----------------13-10------|
 --------9-12-------12-9-------9-12-------12-9-|
 --10-13-----------------10-13-----------------|

S S S S S S S S S S S S S S S S
 
 ------------------------------------------------|
 ------------------------------------------------|
 ------------------------------------------------|
 -------------13-10------------------------------|
 --------9-12-------12-9-------------------------|
 --10-13-----------------10-10-10-10-10-10-10-10-|

S S S S S S S S S S S S S S S S
 
 --------------------------------------------------|
 --------------------------------------15-18-------|
 --------------------13-16-------13-16-------13-10-|
 --------------12-15-------12-15-------------------|
 --------11-14-------------------------------------|
 --12-15-------------------------------------------|

PM PM PM PM PM
S S S S S S S S H E E E E E E E E
 
 -------------------------------|--------------------------|
 -------------------------------|--------------------------|
 -------------------------------|--------------------------|
 --12-9-------------------------|--------------------------|
 -------11-8-6-3----------------|--0--2--1--2--5-----------|
 ----------------7-4--4~--------|--0--2--1--2-----8--7--5--|

PM PM PM PM PM PM PM
[E] [E] [E] [E] [E] [E] [E] [E] [E] [E] [E] [E] [E] [E] [E] [E] [E] [E] [E] [E]  
 
 --------------------------|--------------|--------------------------|
 --------------------------|--------------|--------------------------|
 --------------------------|--------------|--------------------------|
 --------------------------|--------------|--------------------------|
 -----2--1--2--5--------5--|--------5-----|--0--2--1--2--5-----------|
 -----2--1--2-----8--7-----|--8--7-----8--|--0--2--1--2-----8--7--5--|

PM PM PM PM PM PM PM
[E] [E] [E] [E] [E] [E] [E] [E] [E] [E] [E] [E] [E] [E] [E] [E] [E] [E] [E] [E]  
 
 --------------------------|--------------||---------------------------|
 --------------------------|--------------||---------------------------|
 --------------------------|--------------||*--------------------------|
 --------------------------|--------------||*--------------1--2--1-----|
 -----2--1--2--5--------5--|--------5-----||---0--2--1--2--1--2--1--3--|
 -----2--1--2-----8--7-----|--8--7-----8--||---0--2--1--2-----------5--|

PM PM PM PM PM PM PM
[E] [E] [E] [E] [E] [E] [E] [E] [E] [E] [E] [E] [E] [E] [E] [E] [E] [E] [E] [E]  
 
 --------------------------|--------------|--------------------------|
 --------------------------|--------------|--------------------------|
 --------------------------|--------------|--------------------------|
 --------------1--2-----1--|--2-----------|--------------1--2--1-----|
 -----2--1--2--1--2--3--1--|--2--3--2--0--|--0--2--1--2--1--2--1--3--|
 -----2--1--2--------5-----|-----5--4--2--|--0--2--1--2-----------5--|

PM PM PM TP TP TP TP
E E E E E E E E E E E E 3x Q Q Q Q
 
 --------------------------|---------------||------------------------|
 --------------------------|---------------||------------------------|
 --------------------------|--------------*||------------------------|
 --------------1--2-----1--|--2-----------*||------------------------|
 -----2--1--2--1--2--3--1--|--2--3--2--0---||------------------------|
 -----2--1--2--------5-----|-----5--4--2---||--8----12----10----7----|

TP TP TP TP TP TP TP TP
Q Q Q Q Q Q Q Q H H
 
 ------------------------|------------------------|----------------------|
 ------------------------|------------------------|----------------------|
 ------------------------|------------------------|----------------------|
 ------------------------|------------------------|----------------------|
 ------------------------|------------------------|----------------------|
 --8----12----10----7----|--8----12----10----7----|--8~--------4~--------|
 |-3-| |-3-| |-3-| |-3-| |--3-| |-3-| |-3-| |-3-| 

S S S S S S S S S S S S S S S S S S S S S S S S
 
 --10-5-1---------------3-5-9-13-9-5---------------5-|
 ---------3-----------3--------------6-----------6---|
 -----------3-------3------------------7-------7-----|
 -------------3-1-3----------------------8-5-8-------|
 ----------------------------------------------------|
 ----------------------------------------------------|
 |--3--| |--3--| |--3--| |--3--| |--3--| |--3--| 

S S S S S S S S S S S S S S S S S S Q
 
 --9-13-18-13----------------------------13-17-13--------------|
 -------------15----------------------15----------15-----------|
 ----------------14----------------14----------------14~--L----|
 -------------------15----------15-----------------------------|
 ----------------------17-13-17--------------------------------|
 --------------------------------------------------------------|

S S S S S S S S S S S S S S S S
 
 --18-13-17-12-15-10-13-9-17-12-15-10-13-9-12-8-|
 -----------------------------------------------|
 -----------------------------------------------|
 -----------------------------------------------|
 -----------------------------------------------|
 -----------------------------------------------|

S S S S S S S S T T T T T T T T T T T T T T T T
 
 --15-10-13-9-12-8-10-6-9h-10p-9h-10p-9h-10p-9h-10p-9h-10p-9h-10p-9h-10p-9h-10-|
 ------------------------------------------------------------------------------|
 ------------------------------------------------------------------------------|
 ------------------------------------------------------------------------------|
 ------------------------------------------------------------------------------|
 ------------------------------------------------------------------------------|
 |--3--| |--3--| |--3--| |--3--| |--3--| |--3--| |--3--| |--3--| 

S S S S S S S S S S S S S S S S S S S S S S S S
 
 --17-13----------13-18-13----------------------------13-17-13----------13-|
 --------15----15----------15----------------------15----------15----15----|
 -----------14----------------14----------------14----------------14-------|
 --------------------------------15----------15----------------------------|
 -----------------------------------17-13-17-------------------------------|
 --------------------------------------------------------------------------|
 |--3--| |--3--| |--3--| |--3--| |--3--| |---3--| 

S S S S S S S S S S S S S S S S S S Q
 
 --17-13----------------------------13-17-13-------------------|
 --------15----------------------15----------15----------------|
 -----------14----------------14----------------14~--L--L-L----|
 --------------15----------15----------------------------------|
 -----------------17-13-17-------------------------------------|
 --------------------------------------------------------------|

No clue on this part
 
 |-----------3-----------| |--3--| |--3--| |--3--| |--3--| |--3--| |--3-

S S S S S S S S S S S S S S S S S S S S
 
 --17-------------------15-14----------------------------------------------------
 -----------------------------17-15-14----------17-15-14-------------------------
 --------------------------------------17-15-14----------17-15-14----------------
 -----------------------------------------------------------------17-15-13-------
 --------------------------------------------------------------------------17-15-
 --------------------------------------------------------------------------------
 |--3--| |--3--| |--3--| |--3--| |--3--| 

S S S S S S S S S S S S S S S Q.
 
 --------------13-17-13----------13-17-13---------------|
 -----------15----------15----15----------15------------|
 --------14----------------14----------------14~-L------|
 -----15------------------------------------------------|
 --17---------------------------------------------------|
 -------------------------------------------------------|

PM PM PM PM PM PM PM PM PM PM PM PM
E S S E E S S E E S S E S S E E S S E E S S
 
 -----------------------------------|-----------------------------------|
 -----------------------------------|-----------------------------------|
 --9--------9--9--------9--9--------|--5--------5--5--------5--5--------|
 --9--------9--9--------9--9--------|--5--------5--5--------5--5--------|
 --7--7--7--7--7--7--7--7--7--7--7--|--3--3--3--3--3--3--3--3--3--3--3--|
 -----------------------------------|-----------------------------------|

PM PM PM PM PM PM PM PM PM PM PM PM
E S S E E S S E E S S E S S E E S S E E S S
 
 -----------------------------------|-----------------------------------|
 -----------------------------------|-----------------------------------|
 --2--------2--2--------2--2--------|--4--------4--4--------4--4--------|
 --2--------2--2--------2--2--------|--4--------4--4--------4--4--------|
 --0--0--0--0--0--0--0--0--0--0--0--|--2--2--2--2--2--2--2--2--2--2--2--|
 -----------------------------------|-----------------------------------|

PM PM PM PM PM PM PM PM PM PM PM PM
E S S E E S S E E S S E S S E E S S E E S S
 
 -----------------------------------|-----------------------------------|
 -----------------------------------|-----------------------------------|
 --9--------9--9--------9--9--------|--5--------5--5--------5--5--------|
 --9--------9--9--------9--9--------|--5--------5--5--------5--5--------|
 --7--7--7--7--7--7--7--7--7--7--7--|--3--3--3--3--3--3--3--3--3--3--3--|
 -----------------------------------|-----------------------------------|

PM PM PM PM PM PM PM PM PM PM PM PM
E S S E E S S E E S S E S S E E S S E E S S
 
 -----------------------------------|-----------------------------------|
 -----------------------------------|-----------------------------------|
 --2--------2--2--------2--2--------|--4--------4--4--------4--4--------|
 --2--------2--2--------2--2--------|--4--------4--4--------4--4--------|
 --0--0--0--0--0--0--0--0--0--0--0--|--2--2--2--2--2--2--2--2--2--2--2--|
 -----------------------------------|-----------------------------------|

PM PM PM PM PM PM PM PM PM
E E E E E E E E E E E E E E S S E
 
 --------------------------|-----------------------------|
 --------------------------|-----------------------------|
 --9--------9--------9-----|--5--------5--------5S-7S-5--|
 --9--------9--------9-----|--5--------5--------5S-7S-5--|
 --7--7--7--7--7--7--7--7--|--3--3--3--3--3--3--3S-5S-3--|
 --------------------------|-----------------------------|

PM PM PM PM PM PM PM PM PM
E E E E E E E E E E E E E E S S E
 
 --------------------------|-----------------------------|
 --------------------------|-----------------------------|
 --2--------2--------2-----|--4--------4--------4S-5S-4--|
 --2--------2--------2-----|--4--------4--------4S-5S-4--|
 --0--0--0--0--0--0--0--0--|--2--2--2--2--2--2--2S-3S-2--|
 --------------------------|-----------------------------|

PM PM PM PM PM PM PM PM PM
E E E E E E E E E E E E E E S S E
 
 --------------------------|-----------------------------|
 --------------------------|-----------------------------|
 --9--------9--------9-----|--5--------5--------5S-7S-5--|
 --9--------9--------9-----|--5--------5--------5S-7S-5--|
 --7--7--7--7--7--7--7--7--|--3--3--3--3--3--3--3S-5S-3--|
 --------------------------|-----------------------------|

PM PM PM PM PM PM PM PM PM
E E E E E E E E E E E E E E Q
 
 --------------------------|---------------------------|
 --------------------------|---------------------------|
 --2--------2--------2-----|--4--------4---------------|
 --2--------2--------2-----|--4--------4---------------|
 --0--0--0--0--0--0--0--0--|--2--2--2--2--2--2---------|
 --------------------------|--------------------/8\----|

[E] [E] [E] [E] [E] [E] [E] [E] [E] [E] [E] [E] [E] [E] [E] [E] [E] [E] [E] [E]  
 
 --------------------------------------|---------------------------------|
 --------------------------------------|---------10--13----------13--16--|
 --------------------------------------|--8--11----------11--14----------|
 --------------------------------------|---------------------------------|
 --------------5--4--------5--4--------|---------------------------------|
 --5--4--5--4--------5--4--------5--4--|---------------------------------|

[E] [E] [E] [E] [E] [E] [E] [E] [E] [E] [E] [E] [E] [E] [E] [E] [E] [E]  
 
 --------------------------------|-------------8--11--8--11--14--|
 --------------------------------|---------10--------------------|
 --------------------------------|--8--11------------------------|
 --------------------------------|-------------------------------|
 --------------5--4--------5--4--|-------------------------------|
 --5--4--5--4--------5--4--------|-------------------------------|

[E] [E] [E] [E] [E] [E]  
 
 --11--14--17--14----------|---------|---------|---------|
 ------------------16------|---------|---------|---------|
 ----------------------17--|---------|---------|---------|
 --------------------------|---------|---------|---------|
 --------------------------|---------|---------|---------|
 --------------------------|---------|---------|---------|

PM PM PM PM PM PM PM
[E] [E] [E] [E] [E] [E] [E] [E] [E] [E] [E] [E] [E] [E] [E] [E] [E] [E] [E] [E]  
 
 --------------------------|--------------------------|--------------|
 --------------------------|--------------------------|--------------|
 --------------------------|--------------------------|--------------|
 --------------1--2--1--2--|--------------1--2-----1--|--2-----------|
 --0--2--1--2--1--2--1--2--|-----2--1--2--1--2--5--1--|--2--5--4--2--|
 --0--2--1--2--------------|-----2--1--2--------5-----|-----5--4--2--|

TP TP TP TP TP TP TP TP TP TP TP TP TP TP TP TP TP TP TP TP
[E] [E] [E] [E] [E] [E] [E] [E] [E] [E] [E] [E] [E] [E] [E] [E] [E] [E] [E] [E]  
 
 --------------------------|--------------------------|--------------|
 --------------------------|--------------------------|--------------|
 --------------------------|--------------------------|--------------|
 --------------------------|--------------------------|--------------|
 --------------1--2--1--2--|--------------1--2-----1--|--2-----------|
 --0--2--1--2--------------|--0--2--1--2--------5-----|-----5--4--2--|

TP TP TP TP TP TP TP TP TP TP TP TP TP TP TP TP TP TP TP TP
[E] [E] [E] [E] [E] [E] [E] [E] [E] [E] [E] [E] [E] [E] [E] [E] [E] [E] [E] [E]  
 
 --------------------------|--------------------------|--------------|-----|
 --------------------------|--------------------------|--------------|-----|
 --------------------------|--------------------------|--------------|-----|
 --------------------------|--------------------------|--------------|-----|
 --------------1--2--1--2--|--------------1--2-----1--|--2-----------|-----|
 --0--2--1--2--------------|--0--2--1--2--------5-----|-----5--4--2--|-----|

PM PM PM PM PM PM PM
[E] [E] [E] [E] [E] [E] [E] [E] [E] [E] [E] [E] [E] [E] [E] [E] [E] [E] [E] [E]  
 
 --------------------------|--------------------------|--------------|
 --------------------------|--------------------------|--------------|
 --------------------------|--------------------------|--------------|
 --------------------------|--------------------------|--------------|
 --0--2--1--2--5-----------|-----2--1--2--5--------5--|--------------|
 --0--2--1--2-----8--7--5--|-----2--1--2-----8--7-----|--8--7--8--7--|

PM PM PM PM PM PM PM
[E] [E] [E] [E] [E] [E] [E] [E] [E] [E] [E] [E] [E] [E] [E] [E] [E] [E] [E] [E]  
 
 --------------------------|--------------------------|--------------|
 --------------------------|--------------------------|--------------|
 --------------------------|--------------------------|--------------|
 --------------------------|--------------------------|--------------|
 --0--2--1--2--5-----------|-----2--1--2--5--------5--|--------------|
 --0--2--1--2-----8--7--5--|-----2--1--2-----8--7-----|--8--7--8--7--|

PM
S Q. S
 
 --------------||
 --------------||
 --------------||
 --------------||
 --0-----------||
 --0-----------||

Duration Legend
 
 ---------------

W - whole
H - half
Q - quarter
E - 8th
S - 16th
T - 32nd
X - 64th
. - note dotted
|-n-| - n-tuplets
Tablature Legend
 
 ----------------

L - tied note
x - dead note
g - grace note
(n) - ghost note
> - accentuded note
NH - natural harmonic
AH - artificial harmonic
TH - tapped harmonic
SH - semi harmonic
PH - pitch harmonic
h - hammer on
p - pull off
b - bend
br - bendRelease
pb - preBend
pbr - preBendRelease
brb - bendReleaseBend
\n/ - tremolo bar dip
\n - tremolo bar dive
-/n - tremolo bar Release up
/n\ - tremolo bar inverted dip
/n - tremolo bar return
-\n - tremolo bar Release down
S - shift slide
s - legato slide
/ - slide into from below or out of upwards
\ - slide into from above or out of downwards
~ - vibrato
W - wide vibrato
tr - trill
TP - tremolo picking
T - tapping
S - slap
P - pop
< - fade in
^ - brush up
v - brush down
( Tab from: http://www.guitartabs.cc/tabs/b/burning_the_masses/cyanide_tab.html )
Chris
PM PM PM PM PM PM PM PM PM PM PM PM
W S S S S S S S S S S S S S S S S
 
 D||--------------------|------------------------------------------------|
 A||--------------------|------------------------------------------------|
 F||--------------------|------------------------------------------------|
 C||--------------------|------------------------------------------------|
 G||--------------------|------------------------------------------------|
 C||--8~----------------|--8--7--5--5--8--7--5--5--8--7--5--5--8-10-7-10-|

PM PM PM PM PM PM PM PM
S S S S S S S S S S S S S S S S
 
 --------------------------------------------|
 --------------------------------------------|
 --------------------------------------------|
 -----------------------------------7-10-----|
 -------------------------------6-9------6-9-|
 --8--7--5--5--8--7--5--5--7-10--------------|

PM PM PM PM PM PM PM PM PM PM PM PM
S S S S S S S S S S S S S S S S
 
 ------------------------------------------------|
 ------------------------------------------------|
 ------------------------------------------------|
 ------------------------------------------------|
 ------------------------------------------------|
 --8--7--5--5--8--7--5--5--8--7--5--5--8-10-7-10-|

PM PM PM PM PM PM PM PM
S S S S S S S S E E E E
 
 --------------------------------------|
 --------------------------------------|
 --------------------------------------|
 --------------------------------------|
 --------------------------------------|
 --8--7--5--5--8--7--5--5--7--5--4--1--|

PM PM PM PM PM PM
 
 |-3-| |-3-| |-3-| |-3-| 

E S S S S S S S S E S S S S S S S S
 
 --------------------------------------------|
 --------------------------------------------|
 --------------------------------------------|
 --------------------------------------------|
 -----------------3-4-6----------------3-5-6-|
 --3--3--3--3-4-6-------3--3--3--3-4-6-------|

PM PM PM PM PM PM PM PM PM
|-3-| |-3-|
E S S S S S S E S S S S S S S S
 
 --------------------------------------------|
 --------------------------------------------|
 --------------------------------------------|
 --3-----------------------------------------|
 --------------------------------------3-5-6-|
 -----3--3--3--3--3--3--3--3--3--3-4-6-------|

PM PM PM PM PM PM
 
 |-3-| |-3-| |-3-| |-3-| 

E S S S S S S S S E S S S S S S S S
 
 --------------------------------------------|
 --------------------------------------------|
 --------------------------------------------|
 --------------------------------------------|
 -----------------3-4-6----------------3-5-6-|
 --3--3--3--3-4-6-------3--3--3--3-4-6-------|

PM PM PM PM PM PM PM PM PM
|-3-| |-3-|
E S S S S S S E S S S S S S S S
 
 --------------------------------------------|
 --------------------------------------------|
 --------------------------------------------|
 --3-----------------------------------------|
 --------------------------------------3-5-6-|
 -----3--3--3--3--3--3--3--3--3--3-4-6-------|

PM PM PM PM PM PM
 
 |-3-| |-3-| |-3-| |-3-| 

E S S S S S S S S E S S S S S S S S
 
 --------------------------------------------|
 --------------------------------------------|
 --------------------------------------------|
 --------------------------------------------|
 -----------------3-4-6----------------3-5-6-|
 --3--3--3--3-4-6-------3--3--3--3-4-6-------|

PM PM PM PM PM PM PM PM PM
|-3-| |-3-|
E S S S S S S E S S S S S S S S
 
 --------------------------------------------|
 --------------------------------------------|
 --------------------------------------------|
 --3-----------------------------------------|
 --------------------------------------3-5-6-|
 -----3--3--3--3--3--3--3--3--3--3-4-6-------|

PM PM PM PM PM PM
 
 |-3-| |-3-| |-3-| |-3-| 

E S S S S S S S S E S S S S S S S S
 
 --------------------------------------------|
 --------------------------------------------|
 --------------------------------------------|
 --------------------------------------------|
 -----------------3-4-6----------------3-5-6-|
 --3--3--3--3-4-6-------3--3--3--3-4-6-------|

PM PM PM PM PM PM PM PM PM PM PM
|-3-| |-3-|
E S S S S S S E S S S S S S S S Q Q E E E E
 
 --------------------------------------------|------------------------|
 --------------------------------------------|------------------------|
 --------------------------------------------|------------------------|
 --3-----------------------------------------|------------------------|
 --------------------------------------3-5-6-|------------------------|
 -----3--3--3--3--3--3--3--3--3--3-4-6-------|--5----4----5--4--1--0--|

PM PM PM PM PM PM
Q Q E E E E Q Q E E E E Q Q E E E E
 
 ------------------------|------------------------|------------------------|
 ------------------------|------------------------|------------------------|
 ------------------------|------------------------|------------------------|
 ------------------------|------------------------|------------------------|
 ------------------------|------------------------|------------------------|
 --8----7----8--7--5--4--|--5----4----5--4--1--0--|--8----7----8--7--5--4--|

TP TP TP TP TP TP TP TP TP TP TP TP TP TP TP TP TP TP
Q Q E E E E Q Q E E E E Q Q E E E E
 
 ------------------------|------------------------|------------------------|
 ------------------------|------------------------|------------------------|
 ------------------------|------------------------|------------------------|
 ------------------------|------------------------|------------------------|
 ------------------------|------------------------|------------------------|
 --5----4----5--4--1--0--|--8----7----8--7--5--4--|--5----4----5--4--1--0--|

TP TP TP TP TP TP PM PM PM PM PM PM PM PM PM PM PM PM
Q Q E E E E S S S S S S S S S S S S S S S S
 
 ------------------------|------------------------------------------------|
 ------------------------|------------------------------------------------|
 ------------------------|------------------------------------------------|
 ------------------------|------------------------------------------------|
 ------------------------|------------------------------------------------|
 --8----7----8--7--5--4--|--8--7--5--5--8--7--5--5--8--7--5--5--8-10-7-10-|

PM PM PM PM PM PM PM PM
S S S S S S S S S S S S S S S S
 
 --------------------------------------------|
 --------------------------------------------|
 --------------------------------------------|
 -----------------------------------7-10-----|
 -------------------------------6-9------9-6-|
 --8--7--5--5--8--7--5--5--7-10--------------|

PM PM PM PM PM PM PM PM PM PM PM PM
S S S S S S S S S S S S S S S S
 
 ------------------------------------------------|
 ------------------------------------------------|
 ------------------------------------------------|
 ------------------------------------------------|
 ------------------------------------------------|
 --8--7--5--5--8--7--5--5--8--7--5--5--8-10-7-10-|

PM PM PM PM PM PM PM PM
S S S S S S S S E E E E
 
 --------------------------------------|
 --------------------------------------|
 --------------------------------------|
 --------------------------------------|
 --------------------------------------|
 --8--7--5--5--8--7--5--5--7--5--4--1--|

PM PM PM PM PM PM
 
 |-3-| |-3-| |-3-| |-3-| 

E S S S S S S S S E S S S S S S S S
 
 --------------------------------------------|
 --------------------------------------------|
 --------------------------------------------|
 --------------------------------------------|
 -----------------3-4-6----------------3-5-6-|
 --3--3--3--3-4-6-------3--3--3--3-4-6-------|

PM PM PM PM PM PM PM PM PM
|-3-| |-3-|
E S S S S S S E S S S S S S S S
 
 --------------------------------------------|
 --------------------------------------------|
 --------------------------------------------|
 --3-----------------------------------------|
 --------------------------------------3-5-6-|
 -----3--3--3--3--3--3--3--3--3--3-4-6-------|

PM PM PM PM PM PM
 
 |-3-| |-3-| |-3-| |-3-| 

E S S S S S S S S E S S S S S S S S
 
 --------------------------------------------|
 --------------------------------------------|
 --------------------------------------------|
 --------------------------------------------|
 -----------------3-4-6----------------3-5-6-|
 --3--3--3--3-4-6-------3--3--3--3-4-6-------|

PM PM PM PM PM PM PM PM PM
|-3-| |-3-|
E S S S S S S E S S S S S S S S
 
 --------------------------------------------|
 --------------------------------------------|
 --------------------------------------------|
 --3-----------------------------------------|
 --------------------------------------3-5-6-|
 -----3--3--3--3--3--3--3--3--3--3-4-6-------|

PM PM PM PM PM PM
 
 |-3-| |-3-| |-3-| |-3-| 

E S S S S S S S S E S S S S S S S S
 
 --------------------------------------------|
 --------------------------------------------|
 --------------------------------------------|
 --------------------------------------------|
 -----------------3-4-6----------------3-5-6-|
 --3--3--3--3-4-6-------3--3--3--3-4-6-------|

PM PM PM PM PM PM PM PM PM
|-3-| |-3-|
E S S S S S S E S S S S S S S S
 
 --------------------------------------------|
 --------------------------------------------|
 --------------------------------------------|
 --3-----------------------------------------|
 --------------------------------------3-5-6-|
 -----3--3--3--3--3--3--3--3--3--3-4-6-------|

PM PM PM PM PM PM
 
 |-3-| |-3-| |-3-| |-3-| 

E S S S S S S S S E S S S S S S S S
 
 --------------------------------------------|
 --------------------------------------------|
 --------------------------------------------|
 --------------------------------------------|
 -----------------3-4-6----------------3-5-6-|
 --3--3--3--3-4-6-------3--3--3--3-4-6-------|

PM PM PM PM PM PM PM PM PM
|-3-| |-3-|
E S S S S S S E S S S S S S S S Q Q Q Q
 
 --------------------------------------------|----------------------|
 --------------------------------------------|----------------------|
 --------------------------------------------|----------------------|
 --3-----------------------------------------|----------------------|
 --------------------------------------3-5-6-|----------------------|
 -----3--3--3--3--3--3--3--3--3--3-4-6-------|--5----4----5----4----|

S S S S S S S S S S S S S S S S S S S S S S S S S S S S S S S S
 
 ----------------------------------|----------------------------------|
 ----------------------------------|----------------------------------|
 ----------------------------------|----------------------------------|
 ----------8-5-------------8-5-----|----------8-5---------------------|
 ------4-7-----7-4-----4-7-----7-4-|------4-7-----7-4-----------------|
 --5-8-------------5-8-------------|--5-8-------------5-5-5-5-5-5-5-5-|

S S S S S S S S S S S S S S S S S S S S S S S S S S S S S S S S
 
 ----------------------------------|----------------------------------|
 ----------------------------------|----------------------------------|
 ----------------------------------|----------------------------------|
 ----------8-5-------------8-5-----|----------8-5---------------------|
 ------4-7-----7-4-----4-7-----7-4-|------4-7-----7-4-----------------|
 --5-8-------------5-8-------------|--5-8-------------5-5-5-5-5-5-5-5-|

S S S S S S S S S S S S S S S S S S S S S S S S S S S S S S S S
 
 --------------------------------------|------------------------------------|
 --------------------------------------|------------------------------------|
 --------------------------------------|------------------------------------|
 -----------10-7--------------10-7-----|-----------10-7---------------------|
 -------6-9------9-6------6-9------9-6-|-------6-9------9-6-----------------|
 --7-10--------------7-10--------------|--7-10--------------7-7-7-7-7-7-7-7-|

S S S S S S S S S S S S S S S S S S S S S S S S S S S S S S S S
 
 --------------------------------------|------------------------------------|
 --------------------------------------|------------------------------------|
 --------------------------------------|------------------------------------|
 -----------10-7--------------10-7-----|-----------10-7---------------------|
 -------6-9------9-6------6-9------9-6-|-------6-9------9-6-----------------|
 --7-10--------------7-10--------------|--7-10--------------7-7-7-7-7-7-7-7-|

PM
S S S S S S S S S S S S S S S S S S S S S S S S H
 
 ---------------------------------------------|-----------------------------|
 ----------------------------------12-15------|-----------------------------|
 -----------------10-13------10-13-------10-7-|-----------------------------|
 ------------9-12-------9-12------------------|--9-6------------------------|
 -------8-11----------------------------------|------8-5-3-0----------------|
 --9-12---------------------------------------|--------------4-1--1~--------|

PM PM PM PM PM PM PM
[E] [E] [E] [E] [E] [E] [E] [E] [E] [E] [E] [E] [E] [E] [E] [E] [E] [E] [E] [E]  
 
 --------------------------|--------------------------|--------------|
 --------------------------|--------------------------|--------------|
 --------------------------|--------------------------|--------------|
 --------------------------|--------------------------|--------------|
 --0--2--1--2--2-----------|-----2--1--2--2--------2--|--------2-----|
 --0--2--1--2-----5--4--2--|-----2--1--2-----5--4-----|--5--4-----5--|

PM PM PM PM PM PM PM
[E] [E] [E] [E] [E] [E] [E] [E] [E] [E] [E] [E] [E] [E] [E] [E] [E] [E] [E] [E]  
 
 --------------------------|--------------------------|--------------|
 --------------------------|--------------------------|--------------|
 --------------------------|--------------------------|--------------|
 --------------------------|--------------------------|--------------|
 --0--2--1--2--2-----------|-----2--1--2--2--------2--|--------2-----|
 --0--2--1--2-----5--4--2--|-----2--1--2-----5--4-----|--5--4-----5--|

PM PM PM PM PM PM PM
[E] [E] [E] [E] [E] [E] [E] [E] [E] [E] [E] [E] [E] [E] [E] [E] [E] [E] [E] [E]  
 
 |---------------------------|--------------------------|--------------|
 |---------------------------|--------------------------|--------------|
 |*--------------------------|--------------------------|--------------|
 |*--------------1--2--1-----|--------------1--2-----1--|--2-----------|
 |---0--2--1--2--1--2--1--3--|-----2--1--2--1--2--3--1--|--2--3--2--0--|
 |---0--2--1--2-----------5--|-----2--1--2--------5-----|-----5--4--2--|

PM PM PM PM PM PM PM
E E E E E E E E E E E E E E E E E E E E 3x
 
 --------------------------|--------------------------|---------------||
 --------------------------|--------------------------|---------------||
 --------------------------|--------------------------|--------------*||
 --------------1--2--1-----|--------------1--2-----1--|--2-----------*||
 --0--2--1--2--1--2--1--3--|-----2--1--2--1--2--3--1--|--2--3--2--0---||
 --0--2--1--2-----------5--|-----2--1--2--------5-----|-----5--4--2---||

TP TP TP TP TP TP TP TP TP TP TP TP
Q Q Q Q Q Q Q Q Q Q Q Q
 
 ----------------------|----------------------|----------------------|
 ----------------------|--------

Important: The song above is NOT stored on the Chordie server. The original song is hosted at www.guitartabs.cc. Chordie works as a search engine and provides on-the-fly formatting. Chordie does not index songs against artists'/composers' will. To remove this song please click here.

Text color:
Chord color:
Chord grids: 
Font size:    
Page size: 

E
Rate #1 of 2 versions

Jango Player

Login - add to songbook

SHARE PAGE  



You need to log in to post comments