Guitar Tabs, Chords and Lyrics
Server problems seems to be fixed. Chordie has been experiencing problems with songs disappearing. These issues now seems to be fixed, but still verifying the fix. If you find anything strange, please email admin@chordie.com.


Nailgun Massacre  Burning the Masses

i just saw the tab in other web and put it in UG!
enjoy it!
myspace.com/burningthemasses
Nailgun Gun Massacre
Burning The Masses
Right Guitar (Arde)
PM PM PM PM PM PM PM PM PM PM PM PM
S S E S S E S S E S S E
 
 D||---------------------------------------|
 A||---------------------------------------|
 F||---------------------------------------|
 C||---------------------------------------|
 G||---------------------7--7--7--6--6--6--|
 C||--7--7--7--10-10-10--------------------|

PM PM PM PM PM PM PM PM PM PM PM PM PM PM PM PM PM PM PM PM PM W
S S E S S E S S E S S E S S E S S E S S E Q
 
 ----------------------------------------|--------------------------------------|
 ----------------------------------------|--------------------------------------|
 ----------------------------------------|---------------------9--9--9--12----|
 ----------------------------------------|--8--8--8--11-11-11-------------------|
 ---------------------7--7--7--10-10-10--|--------------------------------------|
 --7--7--7--10-10-10---------------------|--------------------------------------|

PM PM PM PM PM PM PM PM PM PM PM PM
S S E S S E S S E S S E
 
 ---------------------------------------|
 ---------------------------------------|
 ---------------------------------------|
 ---------------------------------------|
 ---------------------7--7--7--6--6--6--|
 --7--7--7--10-10-10--------------------|

PM PM PM PM PM PM PM PM PM PM PM PM PM PM PM PM PM PM PM PM PM W
S S E S S E S S E S S E S S E S S E S S E Q
 
 ----------------------------------------|--------------------------------------|
 ----------------------------------------|--------------------------------------|
 ----------------------------------------|---------------------9--9--9--12----|
 ----------------------------------------|--8--8--8--11-11-11-------------------|
 ---------------------7--7--7--10-10-10--|--------------------------------------|
 --7--7--7--10-10-10---------------------|--------------------------------------|

PM PM PM PM PM PM PM PM PM PM PM PM
S S E S S E S S E S S E
 
 ---------------------------------------|
 ---------------------------------------|
 ---------------------------------------|
 ---------------------------------------|
 ---------------------7--7--7--6--6--6--|
 --7--7--7--10-10-10--------------------|

PM PM PM PM PM PM PM PM PM PM PM PM PM PM PM PM PM PM PM PM PM W
S S E S S E S S E S S E S S E S S E S S E Q
 
 ----------------------------------------|--------------------------------------|
 ----------------------------------------|--------------------------------------|
 ----------------------------------------|---------------------9--9--9--12----|
 ----------------------------------------|--8--8--8--11-11-11-------------------|
 ---------------------7--7--7--10-10-10--|--------------------------------------|
 --7--7--7--10-10-10---------------------|--------------------------------------|

Q Q S S E S S E Q Q S S E S S E
 
 --------------------------|--------------------------|
 --------------------------|--------------------------|
 --------------------------|--------------------------|
 --------------------------|--------------------------|
 --0----0----0-0-0--0-0-0--|--0----0----0-0-0--0-0-0--|
 --0----0----0-0-0--0-0-0--|--0----0----0-0-0--0-0-0--|

|---3--|
Q Q S S E S S E Q Q E E E Q
 
 --------------------------|----------------------------|
 --------------------------|----------------------------|
 --------------------------|----------------------------|
 --------------------------|----------------------------|
 --0----0----0-0-0--0-0-0--|--0----0----7--10--7--------|
 --0----0----0-0-0--0-0-0--|--0----0--------------10----|

Q Q S S E S S E Q Q S S E S S E
 
 --------------------------|--------------------------|
 --------------------------|--------------------------|
 --------------------------|--------------------------|
 --------------------------|--------------------------|
 --0----0----0-0-0--0-0-0--|--0----0----0-0-0--0-0-0--|
 --0----0----0-0-0--0-0-0--|--0----0----0-0-0--0-0-0--|

|---3--|
Q Q S S E S S E Q Q E E E Q W
 
 --------------------------|----------------------------|-------------------|
 --------------------------|----------------------------|-------------------|
 --------------------------|----------------------------|-------------------|
 --------------------------|----------------------------|-------------------|
 --0----0----0-0-0--0-0-0--|--0----0----7--10--7--------|-------------------|
 --0----0----0-0-0--0-0-0--|--0----0--------------10----|-------------------|

W E E E E E E E E E E E E E E E E
 
 -------------------|--------------------------|--------------------------|
 -------------------|--------------------------|--------------------------|
 -------------------|--6--------------6-----6--|--L-----------------------|
 -------------------|--5--------------5-----5--|--L-----------------------|
 -------------------|--4--------------4-----4--|--L-----------------------|
 -------------------|-----0--0--0--0-----0-----|-----0--0--0--0--0--4--1--|

[E] [E] [E] [E] [E] [E] [E] [E] [E] [E] [E] [E] [E] [E] [E] [E]  
 
 --------------------------|--------------------------|
 --------------------------|--------------------------|
 --------------------------|--------------------------|
 --------------------------|--------------------------|
 -----------3--2--------2--|--1-----------------------|
 --0--0--0--------0--0-----|-----0--0--0--0--0--0--0--|

[E] [E] [E] [E] [E] [E] [E] [E] [E] [E] [E] [E] [E] [E] [E] [E]  
 
 --------------------------|--------------------------|
 --------------------------|--------------------------|
 --6--------------6-----6--|--L-----------------------|
 --5--------------5-----5--|--L-----------------------|
 --4--------------4-----4--|--L-----------------------|
 -----0--0--0--0-----0-----|-----0--0--0--0--0--4--1--|

[E] [E] [E] [E] [E] [E] [E] [E] [E] [E] [E] [E] [E] [E] [E] [E]  
 
 --------------------------|--------------------------|
 --------------------------|--------------------------|
 --------------------------|--------------------------|
 --------------------------|--------------------------|
 -----------3--2--------2--|--1-----------------------|
 --0--0--0--------0--0-----|-----0--0--0--0-----------|

[E] [E] [E] [E] [E] [E] [E] [E] [E] [E] [E] [E] [E] [E] [E] [E]  
 
 --------------------------|--------------------------|
 --------------------------|--------------------------|
 --------------------------|--------------------------|
 --------------------------|--------------------------|
 -----------3--2--------2--|--1-----------------------|
 --0--0--0--------0--0-----|-----0--0--0--0--0--0--0--|

[E] [E] [E] [E] [E] [E] [E] [E] [E] [E] [E] [E] [E] [E] [E] [E]  
 
 --------------------------|--------------------------|
 --------------------------|--------------------------|
 --------------------------|--------------------------|
 --------------------------|--------------------------|
 -----------3--2--------2--|--1-----------------------|
 --0--0--0--------0--0-----|-----0--0--0--0--0--0--0--|

[E] [E] [E] [E] [E] [E] [E] [E] [E] [E] [E] [E] [E] [E] [E] [E]  
 
 --------------------------|--------------------------|
 --------------------------|--------------------------|
 --------------------------|--------------------------|
 --------------------------|--------------------------|
 -----------3--2--------2--|--1-----------------------|
 --0--0--0--------0--0-----|-----0--0--0--0--0--0--0--|

[E] [E] [E] [E] [E] [E] [E] [E] [E] [E] [E] [E] [E] [E] [E] [E]  
 
 --------------------------|--------------------------|
 --------------------------|--------------------------|
 --------------------------|--------------------------|
 --------------------------|--------------------------|
 -----------3--2--------2--|--1-----------------------|
 --0--0--0--------0--0-----|-----0--0--0--0--0--0--0--|
 |--3--| |--3--| |--3--| |--3--| 

H S S S S S S S S S S S S
 
 -----------13-17-13----------------------------|
 --------------------15----------------------15-|
 -----------------------14----------------14----|
 --------------------------15----------15-------|
 -----------------------------17-13-17----------|
 -----------------------------------------------|
 |--3--| |--3--| |--3--| |--3--| |--3--| |--3--| 3 3 3 

S S S S S S S S S S S S S S S S S S S S E S
 
 --13-18-13----------------------------13-22-13-----------------------|
 -----------15----------------------15----------15--------------------|
 --------------14----------------14----------------14-----------------|
 -----------------15----------15----------------------15--------------|
 --------------------17-12-17----------------------------17--L--L---L-|
 ---------------------------------------------------------------------|
 |--3--| |--3--| |--3--| |--3--| 

H S S S S S S S S S S S S
 
 -----------13-17-13----------------------------|
 --------------------15----------------------15-|
 -----------------------14----------------14----|
 --------------------------15----------15-------|
 -----------------------------17-13-17----------|
 -----------------------------------------------|
 |--3--| |--3--| |--3--| |--3--| |--3--| |--3--| 3 3 3 

S S S S S S S S S S S S S S S S S S S S E S
 
 --13-18-13----------------------------13-22-13-----------------------|
 -----------15----------------------15----------15--------------------|
 --------------14----------------14----------------14-----------------|
 -----------------15----------15----------------------15--------------|
 --------------------17-12-17----------------------------17--L--L---L-|
 ---------------------------------------------------------------------|
 |--3--| |--3--| |--3--| |--3--| 

H S S S S S S S S S S S S
 
 -----------13-17-13----------------------------|
 --------------------15----------------------15-|
 -----------------------14----------------14----|
 --------------------------15----------15-------|
 -----------------------------17-13-17----------|
 -----------------------------------------------|
 |--3--| |--3--| |--3--| |--3--| |--3--| |--3--| 3 3 3 

S S S S S S S S S S S S S S S S S S S S E S
 
 --13-18-13----------------------------13-22-13-----------------------|
 -----------15----------------------15----------15--------------------|
 --------------14----------------14----------------14-----------------|
 -----------------15----------15----------------------15--------------|
 --------------------17-12-17----------------------------17--L--L---L-|
 ---------------------------------------------------------------------|
 |--3--| |--3--| |--3--| |--3--| 

H S S S S S S S S S S S S
 
 -----------13-17-13----------------------------|
 --------------------15----------------------15-|
 -----------------------14----------------14----|
 --------------------------15----------15-------|
 -----------------------------17-13-17----------|
 -----------------------------------------------|
 |--3--| |--3--| |--3--| |--3--| |--3--| |--3--| 3 3 3 

S S S S S S S S S S S S S S S S S S S S E S
 
 --13-18-13----------------------------13-22-13-----------------------|
 -----------15----------------------15----------15--------------------|
 --------------14----------------14----------------14-----------------|
 -----------------15----------15----------------------15--------------|
 --------------------17-12-17----------------------------17--L--L---L-|
 ---------------------------------------------------------------------|
 |--3--| |--3--| |--3--| |--3--| 

H S S S S S S S S S S S S
 
 -----------13-17-13----------------------------|
 --------------------15----------------------15-|
 -----------------------14----------------14----|
 --------------------------15----------15-------|
 -----------------------------17-13-17----------|
 -----------------------------------------------|
 |--3--| |--3--| |--3--| |--3--| |--3--| |--3--| |--3--| 

S S S S S S S S S S S S S S S S S S S S S E
 
 -----13-18-13----------------------------13-22-13--------------------|
 --15----------15----------------------15----------15-----------------|
 -----------------14----------------14----------------14--------------|
 --------------------15----------15----------------------15-----------|
 -----------------------17-12-17----------------------------17--L--L--|
 ---------------------------------------------------------------------|
 |--3--| |--3--| |--3--| |--3--| 

H S S S S S S S S S S S S
 
 -----------13-17-13----------------------------|
 --------------------15----------------------15-|
 -----------------------14----------------14----|
 --------------------------15----------15-------|
 -----------------------------17-13-17----------|
 -----------------------------------------------|
 |--3--| |--3--| |--3--| |--3--| |--3--| |--3--| |--3--| 

S S S S S S S S S S S S S S S S S S S S S E
 
 -----13-18-13----------------------------13-22-13--------------------|
 --15----------15----------------------15----------15-----------------|
 -----------------14----------------14----------------14--------------|
 --------------------15----------15----------------------15-----------|
 -----------------------17-12-17----------------------------17--L--L--|
 ---------------------------------------------------------------------|
 |--3--| |--3--| 

H S S S S S S Q
 
 -----------------13-17-13---------|
 --------------15----------15------|
 -----------14---------------------|
 ----------------------------------|
 ----------------------------------|
 ----------------------------------|
 |--3--| |--3--| |--3--| |--3--| |--3--| |--3--| 

Q S S S S S S S S S S S S S S S S S S
 
 ----------12-15-12----------15-18-15----------13-17-13-------|
 -------13----------13----15----------15----15----------15----|
 ----------------------12----------------14----------------14-|
 -------------------------------------------------------------|
 -------------------------------------------------------------|
 -------------------------------------------------------------|
 |--3--| |--3--| |---3---| |---3---| 

H S S S S S S Q Q E E E E E E Q
 
 -----------------12-15-12---------|--------------------------------------|
 --------------13----------13------|-------------------15-----------------|
 -----------12---------------------|---------------14------14-------------|
 ----------------------------------|-----------15--------------15---------|
 ----------------------------------|-------17----------------------17S----|
 ----------------------------------|--------------------------------------|
 |--3--| |--3--| 

H S S S S S S Q
 
 -----------------13-17-13---------|
 --------------15----------15------|
 -----------14---------------------|
 ----------------------------------|
 ----------------------------------|
 ----------------------------------|
 |--3--| |--3--| |--3--| |--3--| |--3--| |--3--| 

Q S S S S S S S S S S S S S S S S S S
 
 ----------12-15-12----------15-18-15----------13-17-13-------|
 -------13----------13----15----------15----15----------15----|
 ----------------------12----------------14----------------14-|
 -------------------------------------------------------------|
 -------------------------------------------------------------|
 -------------------------------------------------------------|
 |--3--| |--3--| |---3---| |---3---| 

H S S S S S S Q Q E E E E E E Q
 
 -----------------12-15-12---------|--------------------------------------|
 --------------13----------13------|-------------------15-----------------|
 -----------12---------------------|---------------14------14-------------|
 ----------------------------------|-----------15--------------15---------|
 ----------------------------------|-------17----------------------17S----|
 ----------------------------------|--------------------------------------|
 |--3--| |--3--| 

H S S S S S S Q
 
 -----------------13-17-13---------|
 --------------15----------15------|
 -----------14---------------------|
 ----------------------------------|
 ----------------------------------|
 ----------------------------------|
 |--3--| |--3--| |--3--| |--3--| |--3--| |--3--| 

Q S S S S S S S S S S S S S S S S S S
 
 ----------12-15-12----------15-18-15----------13-17-13-------|
 -------13----------13----15----------15----15----------15----|
 ----------------------12----------------14----------------14-|
 -------------------------------------------------------------|
 -------------------------------------------------------------|
 -------------------------------------------------------------|
 |--3--| |--3--| |---3---| |---3---| 

H S S S S S S Q Q E E E E E E Q
 
 -----------------12-15-12---------|--------------------------------------|
 --------------13----------13------|-------------------15-----------------|
 -----------12---------------------|---------------14------14-------------|
 ----------------------------------|-----------15--------------15---------|
 ----------------------------------|-------17----------------------17S----|
 ----------------------------------|--------------------------------------|
 |--3--| |--3--| 

H S S S S S S Q
 
 -----------------13-17-13---------|
 --------------15----------15------|
 -----------14---------------------|
 ----------------------------------|
 ----------------------------------|
 ----------------------------------|
 |--3--| |--3--| |--3--| |--3--| |--3--| |--3--| 

Q S S S S S S S S S S S S S S S S S S
 
 ----------12-15-12----------15-18-15----------13-17-13-------|
 -------13----------13----15----------15----15----------15----|
 ----------------------12----------------14----------------14-|
 -------------------------------------------------------------|
 -------------------------------------------------------------|
 -------------------------------------------------------------|
 |--3--| |--3--| |---3---| |---3---| 

H S S S S S S Q Q E E E E E E Q
 
 -----------------12-15-12---------|--------------------------------------|
 --------------13----------13------|-------------------15-----------------|
 -----------12---------------------|---------------14------14-------------|
 ----------------------------------|-----------15--------------15---------|
 ----------------------------------|-------17----------------------17S----|
 ----------------------------------|--------------------------------------|

PM PM PM PM PM PM PM PM
W W E E E E E E E E
 
 -------------------|-------------------|----------------------------|
 -------------------|-------------------|----------------------------|
 -------------------|-------------------|----------------------------|
 -------------------|-------------------|----------------------------|
 -------------------|-------------------|--12--8--7--4--10--7--4--3--|
 -------------------|-------------------|----------------------------|

PM PM PM PM PM PM PM PM PM PM PM PM PM PM PM PM
[E] [E] [E] [E] [E] [E] [E] [E] [E] [E] [E] [E] [E] [E] [E] [E]  
 
 --------------------------------|----------------------------|
 --------------------------------|----------------------------|
 ------------------------11--14--|----------------------------|
 --7--8--10--12--10--13----------|----------------------------|
 --------------------------------|--12--8--7--4--10--7--4--3--|
 --------------------------------|----------------------------|

PM PM PM PM PM PM PM PM PM PM PM PM PM PM PM PM
[E] [E] [E] [E] [E] [E] [E] [E] [E] [E] [E] [E] [E] [E] [E] [E]  
 
 --------------------------------|----------------------------|
 --------------------------------|----------------------------|
 ------------------------11--14--|----------------------------|
 --7--8--10--12--10--13----------|----------------------------|
 --------------------------------|--12--8--7--4--10--7--4--3--|
 --------------------------------|----------------------------|

PM PM PM PM PM PM PM PM
E E E E E E E S T T W W
 
 -----------------------------------|-------------------|-------------------|
 -----------------------------------|-------------------|-------------------|
 ------------------------11--14-----|-------------------|-------------------|
 --7--8--10--12--10--13-------------|-------------------|-------------------|
 -------------------------------0-0-|-------------------|-------------------|
 -------------------------------0-0-|-------------------|-------------------|

PM PM PM PM PM PM PM PM
W W E E E E E E E E
 
 -------------------|-------------------|----------------------------|
 -------------------|-------------------|----------------------------|
 -------------------|-------------------|----------------------------|
 -------------------|-------------------|----------------------------|
 -------------------|-------------------|--12--8--7--4--10--7--4--3--|
 -------------------|-------------------|----------------------------|

PM PM PM PM PM PM PM PM PM PM PM PM PM PM PM PM
[E] [E] [E] [E] [E] [E] [E] [E] [E] [E] [E] [E] [E] [E] [E] [E]  
 
 --------------------------------|----------------------------|
 --------------------------------|----------------------------|
 ------------------------11--14--|----------------------------|
 --7--8--10--12--10--13----------|----------------------------|
 --------------------------------|--12--8--7--4--10--7--4--3--|
 --------------------------------|----------------------------|

PM PM PM PM PM PM PM PM PM PM PM PM PM PM PM PM
[E] [E] [E] [E] [E] [E] [E] [E] [E] [E] [E] [E] [E] [E] [E] [E]  
 
 --------------------------------|----------------------------|
 --------------------------------|----------------------------|
 ------------------------11--14--|----------------------------|
 --7--8--10--12--10--13----------|----------------------------|
 --------------------------------|--12--8--7--4--10--7--4--3--|
 --------------------------------|----------------------------|

PM PM PM PM PM PM PM PM PM PM PM PM PM PM PM PM
E E E E E E E S T T E E E E E E E E
 
 -----------------------------------|----------------------------|
 -----------------------------------|----------------------------|
 ------------------------11--14-----|----------------------------|
 --7--8--10--12--10--13-------------|----------------------------|
 -------------------------------0-0-|--12--8--7--4--10--7--4--3--|
 -------------------------------0-0-|----------------------------|

PM PM PM PM PM PM PM PM
[E] [E] [E] [E] [E] [E] [E] [E] [E] [E] [E] [E] [E] [E] [E] [E]  
 
 --------------------------------|--------------------------|-----|-----|
 --------------------------------|--------------------------|-----|-----|
 ------------------------11--14--|--------------------------|-----|-----|
 --7--8--10--12--10--13----------|--------------------------|-----|-----|
 --------------------------------|--0-----------------------|-----|-----|
 --------------------------------|--0-----------------------|-----|-----|

Q Q H H Q Q Q Q
 
 ------------|-----------|-----------|------------|------------|-----|-----|
 ------------|-----------|-----------|------------|------------|-----|-----|
 ------------|-----------|-----------|------------|------------|-----|-----|
 ------------|-----------|-----------|------------|------------|-----|-----|
 --0---------|-----------|-----------|-------0----|--0---------|-----|-----|
 --0---------|-----------|-----------|-------0----|--0---------|-----|-----|

Q E E E E Q E E E E E E E E Q E E
 
 -----|-------------|-------------|--------------|--------------|-------------|
 -----|-------------|-------------|--------------|--------------|-------------|
 -----|-------------|-------------|--------------|--------------|-------------|
 -----|-------------|-------------|--------------|--------------|-------------|
 -----|-------------|-------------|--------------|--------------|-------------|
 -----|--0----7--8--|--7--8--0----|--7--8--7--8--|--7--8--7--8--|--0----7--8--|

E E Q E E E E E E E E Q E E E E Q
 
 -------------|--------------|--------------|-------------|-------------|
 -------------|--------------|--------------|-------------|-------------|
 -------------|--------------|--------------|-------------|-------------|
 -------------|--------------|--------------|-------------|-------------|
 -------------|--------------|-----------4--|-------------|-------------|
 --7--8--0----|--7--8--7--8--|--7--8--7-----|--0----7--8--|--7--8--0----|

PM PM
E E E E E E E E Q E E E E E E Q Q
 
 --------------|--------------|-------------|--------------|------------|
 --------------|--------------|-------------|--------------|------------|
 --------------|--------------|-------------|--------------|------------|
 --------------|--------------|-------------|--------------|------------|
 --------------|--------------|-------------|--------------|--4----1----|
 --7--8--7--8--|--7--8--7--8--|--0----7--8--|--7--8--7--0--|--4----1----|

PM PM
Q Q Q E E E E Q E E E E E E E E
 
 ------------|-------------|-------------|--------------|--------------|
 ------------|-------------|-------------|--------------|--------------|
 ------------|-------------|-------------|--------------|--------------|
 ------------|-------------|-------------|--------------|--------------|
 --0----0----|-------------|-------------|--------------|--------------|
 --0----0----|--0----7--8--|--7--8--0----|--7--8--7--8--|--7--8--7--8--|

PM PM PM PM
Q E E E E Q Q Q Q Q E E Q
 
 -------------|-------------|------------|------------|-------------|
 -------------|-------------|------------|------------|-------------|
 -------------|-------------|------------|------------|-------------|
 -------------|-------------|------------|------------|-------------|
 -------------|-------------|--4----1----|--0----0----|-------------|
 --0----7--8--|--7--8--0----|--4----1----|--0----0----|--7--8--7----|

PM PM PM PM PM PM
Q Q E E Q Q Q E E Q Q Q
 
 ------------|-------------|------------|-------------|------------|
 ------------|-------------|------------|-------------|------------|
 ------------|-------------|------------|-------------|------------|
 ------------|-------------|------------|-------------|------------|
 --0----0----|-------------|--0----0----|-------------|--0----0----|
 --0----0----|--7--8--7----|--0----0----|--7--8--7----|--0----0----|

PM PM
E E E E E E Q E E Q Q Q E E Q
 
 ------------------|--14--17-------|-------------|------------|-------------|
 ----------13--16--|---------------|-------------|------------|-------------|
 --12--15----------|---------------|-------------|------------|-------------|
 ------------------|---------------|-------------|------------|-------------|
 ------------------|---------------|-------------|--0----0----|-------------|
 ------------------|---------------|--7--8--7----|--0----0----|--7--8--7----|

PM PM PM PM
Q Q E E Q Q Q E E E E E E Q
 
 ------------|-------------|------------|------------------|--14--17-------|
 ------------|-------------|------------|----------13--16--|---------------|
 ------------|-------------|------------|--12--15----------|---------------|
 ------------|-------------|------------|------------------|---------------|
 --0----0----|-------------|--0----0----|------------------|---------------|
 --0----0----|--7--8--7----|--0----0----|------------------|---------------|

PM PM PM PM
E E Q Q Q E E Q Q Q E E Q
 
 -------------|------------|-------------|------------|-------------|
 -------------|------------|-------------|------------|-------------|
 -------------|------------|-------------|------------|-------------|
 -------------|------------|-------------|------------|-------------|
 -------------|--0----0----|-------------|--0----0----|-------------|
 --7--8--7----|--0----0----|--7--8--7----|--0----0----|--7--8--7----|

PM PM PM PM
Q Q E E E E E E Q E E Q Q Q
 
 ------------|------------------|--14--17-------|-------------|------------|
 ------------|----------13--16--|---------------|-------------|------------|
 ------------|--12--15----------|---------------|-------------|------------|
 ------------|------------------|---------------|-------------|------------|
 --0----0----|------------------|---------------|-------------|--0----0----|
 --0----0----|------------------|---------------|--7--8--7----|--0----0----|

PM PM PM PM
E E Q Q Q E E Q Q Q E E E E
 
 -------------|------------|-------------|------------|------------------|
 -------------|------------|-------------|------------|----------13--16--|
 -------------|------------|-------------|------------|--12--15----------|
 -------------|------------|-------------|------------|------------------|
 -------------|--0----0----|-------------|--0----0----|------------------|
 --7--8--7----|--0----0----|--7--8--7----|--0----0----|------------------|

E E Q E E E E E E Q W
 
 --14--17-------|------------------|--15--18-------|-------------------|
 ---------------|----------14--17--|---------------|-------------------|
 ---------------|--13--16----------|---------------|-------------------|
 ---------------|------------------|---------------|-------------------|
 ---------------|------------------|---------------|-------------------|
 ---------------|------------------|---------------|-------------------|

PM PM PM PM
W W Q Q Q Q
 
 -------------------|-------------------|----------------------|
 -------------------|-------------------|----------------------|
 -------------------|-------------------|----------------------|
 -------------------|-------------------|----------------------|
 -------------------|-------------------|--4----3----1----0----|
 -------------------|-------------------|--4----3----1----0----|

PM PM PM PM PM PM PM PM PM PM PM PM
Q Q Q Q Q Q Q Q Q Q Q Q
 
 ----------------------|----------------------|----------------------|
 ----------------------|----------------------|----------------------|
 ----------------------|----------------------|----------------------|
 ----------------------|----------------------|----------------------|
 --4----3----1----0----|--4----3----1----0----|--4----3----1----0----|
 --4----3----1----0----|--4----3----1----0----|--4----3----1----0----|

PM PM PM PM PM PM PM PM PM PM PM PM
Q Q Q Q Q Q Q Q Q Q Q Q
 
 ----------------------|----------------------|----------------------|
 ----------------------|----------------------|----------------------|
 ----------------------|----------------------|----------------------|
 ----------------------|----------------------|----------------------|
 --4----3----1----0----|--4----3----1----0----|--4----3----1----0----|
 --4----3----1----0----|--4----3----1----0----|--4----3----1----0----|

PM PM PM PM PM PM PM PM PM PM PM PM
Q Q Q Q Q Q Q Q Q Q Q Q
 
 ----------------------|----------------------|----------------------|
 ----------------------|----------------------|----------------------|
 ----------------------|----------------------|----------------------|
 ----------------------|----------------------|----------------------|
 --4----3----1----0----|--4----3----1----0----|--4----3----1----0----|
 --4----3----1----0----|--4----3----1----0----|--4----3----1----0----|

PM PM PM PM PM PM W PM PM PM PM
Q Q Q Q Q Q Q Q Q Q Q Q
 
 ----------------------|------------------------|----------------------|
 ----------------------|------------------------|----------------------|
 ----------------------|------------------------|----------------------|
 ----------------------|------------------------|----------------------|
 -------3----1----0----|--4----3----1----3----|--4----3----1----0----|
 -------3----1----0----|--4----3----1-----------|--4----3----1----0----|

PM PM PM PM PM PM PM PM PM PM W
Q Q Q Q Q Q Q Q Q Q Q Q
 
 ----------------------|----------------------|------------------------|
 ----------------------|----------------------|------------------------|
 ----------------------|----------------------|------------------------|
 ----------------------|----------------------|------------------------|
 --4----3----1----0----|-------3----1----0----|--4----3----1----3----|
 --4----3----1----0----|-------3----1----0----|--4----3----1-----------|

Q H. W W
 
 --------------------|-------------------|-------------------|
 --------------------|-------------------|-------------------|
 --------------------|-------------------|-------------------|
 --------------------|-------------------|-------------------|
 --0-----------------|-------------------|-------------------|
 --0-----------------|-------------------|-------------------|

W
 
 -------------------||
 -------------------||
 -------------------||
 -------------------||
 -------------------||
 -------------------||

Left Guitar (Chris)
PM PM PM PM PM PM PM PM PM PM PM PM
S S E S S E H S S E S S E H
 
 D||------------------------------|------------------------------|
 A||------------------------------|------------------------------|
 F||------------------------------|------------------------------|
 C||------------------------------|------------------------------|
 G||------------------------------|------------------------------|
 C||--7--7--7--10-10-10-----------|--7--7--7--10-10-10-----------|

PM PM PM PM PM PM PM PM PM PM PM PM
W S S E S S E S S E S S E
 
 -------------------|---------------------------------------|
 -------------------|---------------------------------------|
 -------------------|---------------------------------------|
 -------------------|---------------------------------------|
 -------------------|---------------------7--7--7--6--6--6--|
 -------------------|--7--7--7--10-10-10--------------------|

PM PM PM PM PM PM PM PM PM PM PM PM PM PM PM PM PM PM PM PM PM W
S S E S S E S S E S S E S S E S S E S S E Q
 
 ----------------------------------------|--------------------------------------|
 ----------------------------------------|--------------------------------------|
 ----------------------------------------|---------------------9--9--9--12----|
 ----------------------------------------|--8--8--8--11-11-11-------------------|
 ---------------------7--7--7--10-10-10--|--------------------------------------|
 --7--7--7--10-10-10---------------------|--------------------------------------|

PM PM PM PM PM PM PM PM PM PM PM PM
S S E S S E S S E S S E
 
 ---------------------------------------|
 ---------------------------------------|
 ---------------------9--9--9--8--8--8--|
 --7--7--7--10-10-10--------------------|
 ---------------------------------------|
 ---------------------------------------|

PM PM PM PM PM PM PM PM PM PM PM PM W
S S E S S E S S E S S E S S E S S E S S E Q
 
 ----------------------------------------|----------------------12-12-12--15----|
 ----------------------------------------|--11-11-11--14-14-14------------------|
 ---------------------9--9--9--12-12-12--|--------------------------------------|
 --7--7--7--10-10-10---------------------|--------------------------------------|
 ----------------------------------------|--------------------------------------|
 ----------------------------------------|--------------------------------------|

Q Q S S E S S E Q Q S S E S S E
 
 --------------------------|--------------------------|
 --------------------------|--------------------------|
 --------------------------|--------------------------|
 --------------------------|--------------------------|
 --0----0----0-0-0--0-0-0--|--0----0----0-0-0--0-0-0--|
 --0----0----0-0-0--0-0-0--|--0----0----0-0-0--0-0-0--|
 |---3---| 

Q Q S S E S S E Q Q E E E Q
 
 --------------------------|------------------------------|
 --------------------------|------------------------------|
 --------------------------|------------------------------|
 --------------------------|------------------------------|
 --0----0----0-0-0--0-0-0--|--0----0----10--13--10--------|
 --0----0----0-0-0--0-0-0--|--0----0----------------13----|

Q Q S S E S S E Q Q S S E S S E
 
 --------------------------|--------------------------|
 --------------------------|--------------------------|
 --------------------------|--------------------------|
 --------------------------|--------------------------|
 --0----0----0-0-0--0-0-0--|--0----0----0-0-0--0-0-0--|
 --0----0----0-0-0--0-0-0--|--0----0----0-0-0--0-0-0--|
 |---3---| 

Q Q S S E S S E Q Q E E E Q W
 
 --------------------------|------------------------------|-------------------|
 --------------------------|------------------------------|-------------------|
 --------------------------|------------------------------|-------------------|
 --------------------------|------------------------------|-------------------|
 --0----0----0-0-0--0-0-0--|--0----0----10--13--10--------|-------------------|
 --0----0----0-0-0--0-0-0--|--0----0----------------13----|-------------------|

W E E E E E E E E E E E E E E E E
 
 -------------------|--------------------------|--------------------------|
 -------------------|--------------------------|--------------------------|
 -------------------|--6--------------6-----6--|--L-----------------------|
 -------------------|--5--------------5-----5--|--L-----------------------|
 -------------------|--4--------------4-----4--|--L-----------------------|
 -------------------|-----0--0--0--0-----0-----|-----0--0--0--0--0--4--1--|

[E] [E] [E] [E] [E] [E] [E] [E] [E] [E] [E] [E] [E] [E] [E] [E]  
 
 --------------------------|--------------------------|
 --------------------------|--------------------------|
 --------------------------|--------------------------|
 --------------------------|--------------------------|
 -----------3--2--------2--|--1-----------------------|
 --0--0--0--------0--0-----|-----0--0--0--0--0--0--0--|

[E] [E] [E] [E] [E] [E] [E] [E] [E] [E] [E] [E] [E] [E] [E] [E]  
 
 --------------------------|--------------------------|
 --------------------------|--------------------------|
 --6--------------6-----6--|--L-----------------------|
 --5--------------5-----5--|--L-----------------------|
 --4--------------4-----4--|--L-----------------------|
 -----0--0--0--0-----0-----|-----0--0--0--0--0--4--1--|

E E E E E E E E E E E E E E Q
 
 --------------------------|----------------------------|
 --------------------------|----------------------------|
 --------------------------|----------------------------|
 --------------------------|----------------------------|
 -----------3--2--------2--|--1--------------3~-------|
 --0--0--0--------0--0-----|-----0--0--0--0-------------|

[E] [E] [E] [E] [E] [E] [E] [E] [E] [E] [E] [E] [E] [E] [E] [E]  
 
 --------------------------|--------------------------|
 --------------------------|--------------------------|
 --------------------------|--------------------------|
 --------------------------|--------------------------|
 -----------6--5--------5--|--4-----------------------|
 --0--0--0--------0--0-----|-----0--0--0--0--0--0--0--|

[E] [E] [E] [E] [E] [E] [E] [E] [E] [E] [E] [E] [E] [E] [E] [E]  
 
 --------------------------|--------------------------|
 --------------------------|--------------------------|
 --------------------------|--------------------------|
 --------------------------|--------------------------|
 -----------6--5--------5--|--4-----------------------|
 --0--0--0--------0--0-----|-----0--0--0--0--0--0--0--|

[E] [E] [E] [E] [E] [E] [E] [E] [E] [E] [E] [E] [E] [E] [E] [E]  
 
 --------------------------|--------------------------|
 --------------------------|--------------------------|
 --------------------------|--------------------------|
 --------------------------|--------------------------|
 -----------3--2--------2--|--1-----------------------|
 --0--0--0--------0--0-----|-----0--0--0--0--0--0--0--|

[E] [E] [E] [E] [E] [E] [E] [E] [E] [E] [E] [E] [E] [E] [E] [E]  
 
 --------------------------|--------------------------|---------------|
 --------------------------|--------------------------|---------------|
 --------------------------|--------------------------|---------------|
 --------------------------|--------------------------|---------------|
 -----------3--2--------2--|--1-----------------------|---------------|
 --0--0--0--------0--0-----|-----0--0--0--0--0--0--0--|---------------|
 |--3--| |--3--| |--3--| |--3--| 

H S S S S S S S S S S S S
 
 -------------------|-----------10-13-10----------------------------|
 -------------------|--------------------11----------------------11-|
 -------------------|-----------------------10----------------10----|
 -------------------|--------------------------12----------12-------|
 -------------------|-----------------------------13-10-13----------|
 -------------------|-----------------------------------------------|
 |--3--| |--3--| |--3--| |--3--| |--3--| |--3--| 3 3 3 

S S S S S S S S S S S S S S S S S S S S E S
 
 --10-15-10----------------------------10-18-10-----------------------|
 -----------11----------------------11----------11--------------------|
 --------------10----------------10----------------10-----------------|
 -----------------12----------12----------------------12--------------|
 --------------------13-10-13----------------------------13--L--L---L-|
 ---------------------------------------------------------------------|
 |--3--| |--3--| |--3--| |--3--| 

H S S S S S S S S S S S S
 
 -----------10-13-10----------------------------|
 --------------------11----------------------11-|
 -----------------------10----------------10----|
 --------------------------12----------12-------|
 -----------------------------13-10-13----------|
 -----------------------------------------------|
 |--3--| |--3--| |--3--| |--3--| |--3--| |--3--| 3 3 3 

S S S S S S S S S S S S S S S S S S S S E S
 
 --10-15-10----------------------------10-18-10-----------------------|
 -----------11----------------------11----------11--------------------|
 --------------10----------------10----------------10-----------------|
 -----------------12----------12----------------------12--------------|
 --------------------13-10-13----------------------------13--L--L---L-|
 ---------------------------------------------------------------------|
 |--3--| |--3--| |--3--| |--3--| 

H S S S S S S S S S S S S
 
 -----------10-13-10----------------------------|
 --------------------11----------------------11-|
 -----------------------10----------------10----|
 --------------------------12----------12-------|
 -----------------------------13-10-13----------|
 -----------------------------------------------|
 |--3--| |--3--| |--3--| |--3--| |--3--| |--3--| 3 3 3 

S S S S S S S S S S S S S S S S S S S S E S
 
 --10-13-10----------------------------10-13-10-----------------------|
 -----------11----------------------11----------11--------------------|
 --------------10----------------10----------------10-----------------|
 -----------------12----------12----------------------12--------------|
 --------------------13-10-13----------------------------13--L--L---L-|
 ---------------------------------------------------------------------|
 |--3--| |--3--| |--3--| |--3--| 

H S S S S S S S S S S S S
 
 -----------10-13-10----------------------------|
 --------------------11----------------------11-|
 -----------------------10----------------10----|
 --------------------------12----------12-------|
 -----------------------------13-10-13----------|
 -----------------------------------------------|
 |--3--| |--3--| |--3--| |--3--| |--3--| |--3--| 3 3 3 

S S S S S S S S S S S S S S S S S S S S E S
 
 --10-15-10----------------------------10-18-10-----------------------|
 -----------11----------------------11----------11--------------------|
 --------------10----------------10----------------10-----------------|
 -----------------12----------12----------------------12--------------|
 --------------------13-10-13----------------------------13--L--L---L-|
 ---------------------------------------------------------------------|
 |--3--| |--3--| |--3--| |--3--| 

H S S S S S S S S S S S S
 
 -----------10-13-10----------------------------|
 --------------------11----------------------11-|
 -----------------------10----------------10----|
 --------------------------12----------12-------|
 -----------------------------13-10-13----------|
 -----------------------------------------------|
 |--3--| |--3--| |--3--| |--3--| |--3--| |--3--| 3 3 3 

S S S S S S S S S S S S S S S S S S S S E S
 
 --10-15-10----------------------------10-18-10-----------------------|
 -----------11----------------------11----------11--------------------|
 --------------10----------------10----------------10-----------------|
 -----------------12----------12----------------------12--------------|
 --------------------13-10-13----------------------------13--L--L---L-|
 ---------------------------------------------------------------------|
 |--3--| |--3--| 

H S S S S S S Q
 
 -----------------13-17-13---------|
 --------------15----------15------|
 -----------14---------------------|
 ----------------------------------|
 ----------------------------------|
 ----------------------------------|
 |--3--| |--3--| |--3--| |--3--| |--3--| |--3--| 

Q S S S S S S S S S S S S S S S S S S
 
 ----------12-15-12----------15-18-15----------13-17-13-------|
 -------13----------13----15----------15----15----------15----|
 ----------------------12----------------14----------------14-|
 -------------------------------------------------------------|
 -------------------------------------------------------------|
 -------------------------------------------------------------|
 |--3--| |--3--| |---3---| |---3---| 

H S S S S S S Q Q E E E E E E Q
 
 -----------------12-15-12---------|--------------------------------------|
 --------------13----------13------|-------------------15-----------------|
 -----------12---------------------|---------------14------14-------------|
 ----------------------------------|-----------15--------------15---------|
 ----------------------------------|-------17----------------------17S----|
 ----------------------------------|--------------------------------------|
 |--3--| |--3--| 

H S S S S S S Q
 
 -----------------13-17-13---------|
 --------------15----------15------|
 -----------14---------------------|
 ----------------------------------|
 ----------------------------------|
 ----------------------------------|
 |--3--| |--3--| |--3--| |--3--| |--3--| |--3--| 

Q S S S S S S S S S S S S S S S S S S
 
 ----------12-15-12----------15-18-15----------13-17-13-------|
 -------13----------13----15----------15----15----------15----|
 ----------------------12----------------14----------------14-|
 -------------------------------------------------------------|
 -------------------------------------------------------------|
 -------------------------------------------------------------|
 |--3--| |--3--| |---3---| |---3---| 

H S S S S S S Q Q E E E E E E Q
 
 -----------------12-15-12---------|--------------------------------------|
 --------------13----------13------|-------------------15-----------------|
 -----------12---------------------|---------------14------1

Important: The song above is NOT stored on the Chordie server. The original song is hosted at www.guitartabs.cc. Chordie works as a search engine and provides on-the-fly formatting. Chordie does not index songs against artists'/composers' will. To remove this song please click here.

Text color:
Chord color:
Chord grids: 
Font size:    
Page size: 

E
Rate #1 of 1 versions

Login - add to songbook

SHARE PAGE  



You need to log in to post comments