Guitar Tabs, Chords and Lyrics
Update 25:10. 13:00. Site is back up running again. Songbooks are recovered. Woring on getting search back up..


Bohemian Rhapsody  California Guitar Trio

Bohemian Rhapsody
The California Guitar Trio
Guitar 1
E E E E Q Q E E E E E S S Q
 
 E||-----6--6--6--6---------|-----6--6--6--6-----------|
 B||-------------------8----|-----------------8-8-L----|
 G||------------------------|--------------------------|
 D||------------------------|--------------------------|
 A||------------------------|--------------------------|
 E||------------------------|--------------------------|

E E E E Q Q Q E E E E E E H
 
 -----5--5--5--6----5---------|--6--6--6--6-----------------|
 -----------------------------|--------------6--------------|
 -----------------------------|-----------------7--L--------|
 -----------------------------|-----------------------------|
 -----------------------------|-----------------------------|
 -----------------------------|-----------------------------|

E E E E Q. E E E E E E Q E W
 
 ------------------------|-----------1--L-------3--|--L----------------|
 --3--3--3--3--L------3--|--3--3--4----------------|-------------------|
 ------------------------|-----------------3-------|-------------------|
 ------------------------|-------------------------|-------------------|
 ------------------------|-------------------------|-------------------|
 ------------------------|-------------------------|-------------------|

E E E E E Q. E E E E S E. E E E E Q E E Q
 
 --3--3--3--3--L--3------|--1--1--3--1--------4--6--|--7--7--6----5--5--6----|
 ------------------------|--------------4-1---------|------------------------|
 ------------------------|--------------------------|------------------------|
 ------------------------|--------------------------|------------------------|
 ------------------------|--------------------------|------------------------|
 ------------------------|--------------------------|------------------------|

E E Q E E Q E E E E Q Q E E E E H
 
 --7--7--6----5--5--6----|--/3--3--3--3--1----/6----|--6--6--6--6--5--------|
 ------------------------|--------------------------|-----------------------|
 ------------------------|--------------------------|-----------------------|
 ------------------------|--------------------------|-----------------------|
 ------------------------|--------------------------|-----------------------|
 ------------------------|--------------------------|-----------------------|

H Q E E H H W
 
 -----------------------|--------------------|-------------------|
 -----------------------|--------------------|-------------------|
 ----------------2h--3--|--3-----------------|-------------------|
 -----------------------|--------------------|-------------------|
 -----------------------|--------------------|-------------------|
 -----------------------|--------------------|-------------------|

E E H E E E. S H E E E E S E. Q S E.
 
 |------------------------|-----------------------|-----1-------------------|
 |---3--3--L--------------|--1---3-3-----------3--|--4-----4-3---1----1-3---|
 |*--------------------3--|-----------------------|-------------------------|
 |*-----------------------|-----------------------|-------------------------|
 |------------------------|-----------------------|-------------------------|
 |------------------------|-----------------------|-------------------------|

S E. S E. H E E Q Q E E E. S H E E
 
 ----1------------------|---------------------1--|--5---3-3-----------3--|
 --4-----4-3---1--------|--3--3--L---------3-----|-----------------------|
 -----------------------|------------------------|-----------------------|
 -----------------------|------------------------|-----------------------|
 -----------------------|------------------------|-----------------------|
 -----------------------|------------------------|-----------------------|

E E E E E. S E. S H H E E H E S S
 
 --6--6--6--6--6---3-------|--------------------|--/3--3--L-----------3h-4-|
 --------------------4---3-|--1-----------------|------------------6-------|
 --------------------------|--------------------|--------------------------|
 --------------------------|--------------------|--------------------------|
 --------------------------|--------------------|--------------------------|
 --------------------------|--------------------|--------------------------|

H. E E E. S E. S Q E. S E. S E. S E E E S S
 
 --3---------------3--|--4---3-3---1-1----------|------1-1---3-3--4--4--6-4-|
 ---------------------|-------------------------|---------------------------|
 ---------------------|-----------------------3-|--3------------------------|
 ---------------------|-------------------------|---------------------------|
 ---------------------|-------------------------|---------------------------|
 ---------------------|-------------------------|---------------------------|

E Q S S Q. S S Q. S S E S S E E E E Q H
 
 --L--3----1-3-6------1-3-|--------------------------|----------------------|
 -------------------------|--4----------0--2-0-L--2--|--0-------------------|
 -------------------------|---------3-3--------------|-----3--L-------------|
 -------------------------|--------------------------|----------------------|
 -------------------------|--------------------------|----------------------|
 -------------------------|--------------------------|----------------------|

H W W
 
 -----------|-------------------|--------------------||
 -----------|-------------------|--------------------||
 -----------|-------------------|-------------------*||
 -----------|-------------------|-------------------*||
 -----------|-------------------|--------------------||
 -----------|-------------------|--------------------||

Q E S S Q. E Q E S S E S S E S S
 
 ------------------6---------|--8~----L--10-11-8~--10-11-8--10-11-|
 -------/6g8--6p-4--------8--|------------------------------------|
 --3-------------------------|------------------------------------|
 ----------------------------|------------------------------------|
 ----------------------------|------------------------------------|
 ----------------------------|------------------------------------|

Q E. S S S S S Q
 
 --13~-----L------------16-18-20~----|
 -----------------18-20--------------|
 --------------17--------------------|
 ------------------------------------|
 ------------------------------------|
 ------------------------------------|
 |--3--| |--3--| |---3---| 

S S S T X X S S S S S S T T T S T T S Q
 
 --18-16-15-16-15h-16p-15----15-----------------------------------------|
 -------------------------18----18-16-15-15h-16p-15S-13-15p-13----------|
 --------------------------------------------------------------15--L----|
 -----------------------------------------------------------------------|
 -----------------------------------------------------------------------|
 -----------------------------------------------------------------------|

S S S S T T T T E S S S S T T T T E
 
 -------------------15-16-18-------------------15-16-18--|
 ----------15-16-18-------------------15-16-18-----------|
 ----15-17----------------------15-17--------------------|
 --------------------------------------------------------|
 --------------------------------------------------------|
 --------------------------------------------------------|

Q. S S E S S E S S Q. S S Q Q
 
 --20--------------------------------|----------------------------|
 ----------15-16-----15-16-----15-16-|--18------------------18----|
 ----------------17--------17--------|----------------------------|
 ------------------------------------|----------15-17-18----------|
 ------------------------------------|----------------------------|
 ------------------------------------|----------------------------|

Q. S S Q Q W W
 
 -----------------------------|-------------------|-------------------|
 -----------------------------|-------------------|-------------------|
 ----------18-18-18-----------|-------------------|-------------------|
 --18-------------------------|-------------------|-------------------|
 ----------------------16\----|-------------------|-------------------|
 -----------------------------|-------------------|-------------------|

Q E E Q E E E E E E Q Q Q E E Q E E
 
 ------------------------|------------------------|------------------------|
 ------------------------|------------------------|------------------------|
 --7----6--6--5----6--6--|--7--7--6--6--5----6----|--7----6--6--7----6--6--|
 ------------------------|------------------------|------------------------|
 ------------------------|------------------------|------------------------|
 ------------------------|------------------------|------------------------|

E E Q Q Q E E E E Q Q E E E E Q Q
 
 -----------------------|------------------------|--3--3--3--3--4----4----|
 -----------------------|--6--6--4--6--7----7----|------------------------|
 --5--5--6----7----6----|------------------------|------------------------|
 -----------------------|------------------------|------------------------|
 -----------------------|------------------------|------------------------|
 -----------------------|------------------------|------------------------|

Q H E E E E H E E E E E E E E E E
 
 --5-------------------|------------------------|---------------------------|
 ----------------------|------------------------|---------------------------|
 ----------------2--2--|--3p--2-----------2--2--|--3p--2--2--2--3--2--0-----|
 ----------------------|------------------------|------------------------3--|
 ----------------------|------------------------|---------------------------|
 ----------------------|------------------------|---------------------------|

E E E E Q Q H Q E E Q Q
 
 --------6--6--|--6------------------|----------------------------|
 --------------|---------------------|--12----11--11--10----11----|
 -----3--------|---------------------|----------------------------|
 --2-----------|---------------------|----------------------------|
 --------------|---------------------|----------------------------|
 --------------|---------------------|----------------------------|

Q E E Q Q Q E E Q Q
 
 ----------------------------|----------------------------|
 --12----11--11--10----11----|--13----13--11--10----11----|
 ----------------------------|----------------------------|
 ----------------------------|----------------------------|
 ----------------------------|----------------------------|
 ----------------------------|----------------------------|

E E Q E E Q Q E E Q E E
 
 ------------------------------|------------------------------|
 --13--13--11----10--10--11----|--13----13--15--11----11--11--|
 ------------------------------|------------------------------|
 ------------------------------|------------------------------|
 ------------------------------|------------------------------|
 ------------------------------|------------------------------|

E E E E Q E E E E E E E E E E
 
 --------------------------------|------11------11------11-----11--|
 --10--10--10--10--11----11--11--|--13------11------10------9------|
 --------------------------------|---------------------------------|
 --------------------------------|---------------------------------|
 --------------------------------|---------------------------------|
 --------------------------------|---------------------------------|

E E Q E E Q E E Q Q Q Q Q Q. E
 
 ------------------------|-----------------------|----------------------|
 ------------------------|-----------------------|--8---------8------6--|
 ------------------------|-----------------------|-------8--------------|
 --9--9--8----7--7--8----|--9--9--8----7----8----|----------------------|
 ------------------------|-----------------------|----------------------|
 ------------------------|-----------------------|----------------------|

E E E E E E E E Q Q Q E E E E E E E E E E
 
 -----------------6--6--6--|--L--------------------|-----------------6--6--6--|
 --6--8--9--8--6-----------|------------8-------6--|--6--8--9--8--6-----------|
 --------------------------|-------8---------8-----|--------------------------|
 --------------------------|-----------------------|--------------------------|
 --------------------------|-----------------------|--------------------------|
 --------------------------|-----------------------|--------------------------|

Q Q Q E E E E E E E E E E E E E E E E E E
 
 --L--------------------|-----------------6--6--6--|-----------------6--6--6--|
 ------------8-------6--|--6--8--9--8--6-----------|--6--8--9--8--6-----------|
 -------8---------8-----|--------------------------|--------------------------|
 -----------------------|--------------------------|--------------------------|
 -----------------------|--------------------------|--------------------------|
 -----------------------|--------------------------|--------------------------|

E E E E E E E E E Q Q Q E Q Q H
 
 ---------------------11--11--|--------------------------|----------------------|
 --6--8--9--8--6--11----------|-----11-------------------|----------------------|
 -----------------------------|-----------11----9--------|----------------------|
 -----------------------------|----------------------11--|---L------------------|
 -----------------------------|--------------------------|----------------------|
 -----------------------------|--------------------------|----------------------|

H E E E E E E E E E E E E E E E E Q Q
 
 -----------------------|----------------------------|-------------------------|
 -----------------------|----------------------------|-------------------11----|
 --------------3--3--3--|--5p--3--3--3--5p--3--3--3--|--3--3--3--3--3----------|
 -----------------------|----------------------------|-------------------------|
 -----------------------|----------------------------|-------------------------|
 -----------------------|----------------------------|-------------------------|

Q. E Q E E E E E E Q Q
 
 --11------11--11----11--11--|--10--10--10--10--15----15----|
 ----------------------------|------------------15----15----|
 ----------------------------|------------------------------|
 ----------------------------|------------------------------|
 ----------------------------|------------------------------|
 ----------------------------|------------------------------|

Q. E Q E E Q. E Q Q
 
 -----------------------|--/8------6-------------|
 --9------8--6----8--9--|-------------9----8/----|
 -----------------------|------------------------|
 -----------------------|------------------------|
 -----------------------|------------------------|
 -----------------------|------------------------|
 |---3---| |---3---| 

Q E E E Q E E E
 
 --18----18--18--18--18----18--18--18--|
 --18----18--18--18--18----18--18--18--|
 --------------------------------------|
 --------------------------------------|
 --------------------------------------|
 --------------------------------------|
 |---3---| |---3---| |---3---| |----3----| |--3-| |-3| 

E E E E E E E E E Q Q Q Q Q E E Q
 
 --18--18--18--18--18--18--18--18--18--18----|---------------------------------|
 --18--18--18--18--18--18--18--18--18--18----|--4-------------------1--3--4----|
 --------------------------------------------|-------0----1----3---------------|
 --------------------------------------------|---------------------------------|
 --------------------------------------------|---------------------------------|
 --------------------------------------------|---------------------------------|
 |----3----| |--3--| |----3----| |--3-| |-3| 

Q Q Q E E E Q Q Q Q Q E E Q
 
 -------------------------------|---------------------------------|
 --4-----------------1----------|--4-------------------1--3--4----|
 -------0----1----3-----3--L----|-------0----1----3---------------|
 -------------------------------|---------------------------------|
 -------------------------------|---------------------------------|
 -------------------------------|---------------------------------|
 |----3----| |--3--| |-----3----| |----3----| 

Q Q Q E E E Q Q Q Q Q Q Q
 
 --1----------------------------|-------/4----4----4----3----3----|
 -----------------1--3--1--L----|---------------------------------|
 -------2----3------------------|---------------------------------|
 -------------------------------|---------------------------------|
 -------------------------------|---------------------------------|
 -------------------------------|---------------------------------|
 |----3----| 

Q Q Q S E. Q E. S H. H
 
 --3-------------------------|---------------------|-----------|
 -------6----6----4-4---4----|--3---4-6------------|-----------|
 ----------------------------|---------------------|-----------|
 ----------------------------|---------------------|-----------|
 ----------------------------|---------------------|-----------|
 ----------------------------|---------------------|-----------|
 |-----3----| |----3----| |----3----| |----3----| 

Q Q Q Q Q Q Q Q Q Q Q Q
 
 -------/4----4----4----3----3----|--3-------------------------------|
 ---------------------------------|-------6----6----6g4----4----4----|
 ---------------------------------|----------------------------------|
 ---------------------------------|----------------------------------|
 ---------------------------------|----------------------------------|
 ---------------------------------|----------------------------------|
 |----3----| 

E. S H. H Q Q Q Q H.
 
 --4---6-8------------|--4-------------4----4----|--3----1------------|
 ---------------------|--------------------------|--------------------|
 ---------------------|--------------------------|--------------------|
 ---------------------|--------------------------|--------------------|
 ---------------------|--------------------------|--------------------|
 ---------------------|--------------------------|--------------------|
 |-----3----| |----3----| 

Q Q Q Q Q Q Q Q. E Q
 
 -------/4----4----4----4----4----|--3----1------3--L----|
 ---------------------------------|----------------------|
 ---------------------------------|----------------------|
 ---------------------------------|----------------------|
 ---------------------------------|----------------------|
 ---------------------------------|----------------------|
 |------3-----| |------3-----| |----3----| 

Q Q E E H Q Q E E Q Q Q
 
 ---------------------------|---------------------------------|
 --4----4----4--4--6--------|--4----4----4--4--6----4----3----|
 ---------------------------|---------------------------------|
 ---------------------------|---------------------------------|
 ---------------------------|---------------------------------|
 ---------------------------|---------------------------------|

H H W W
 
 --------------------|-------------------|-------------------|
 --4-----------------|-------------------|-------------------|
 --------------------|-------------------|-------------------|
 --------------------|-------------------|-------------------|
 --------------------|-------------------|-------------------|
 --------------------|-------------------|-------------------|

|---3--|
W E E E E S S E. S S E.
 
 -------------------|----------------------8------8-9---|
 -------------------|------9--11---L--9-11-----11-------|
 -------------------|--11-------------------------------|
 -------------------|-----------------------------------|
 -------------------|-----------------------------------|
 -------------------|-----------------------------------|
 |---3--| |---3---| |---3--| |-3-| 

E E E E E E E E E E Q
 
 -----------------------9------9--11--12\----|
 ------------9--10--12-----12----------------|
 --8--9--11----------------------------------|
 --------------------------------------------|
 --------------------------------------------|
 --------------------------------------------|
 |--3--| |--3--| |--3--| |-3| |--3--| |--3--| |--3--| |-3| 

E E E E E E E E E E Q E E E E E E E E E E Q
 
 --------------------------------6----|--------------------1-----1--3--4----|
 -----------------------6--7--9-------|-----1--3--1--3--4-----4-------------|
 --------5--6--5--6--8----------------|--3----------------------------------|
 --6--8-------------------------------|-------------------------------------|
 -------------------------------------|-------------------------------------|
 -------------------------------------|-------------------------------------|
 |--3--| |--3--| |--3--| |--3--| 

E E E E E E E E E E E E Q Q Q Q
 
 --------------------------------------|----------------------|
 --------------------------------1-----|--1----3----4----3----|
 -----------------0--1--0--1--3-----3--|----------------------|
 --0--1--3--1--3-----------------------|----------------------|
 --------------------------------------|----------------------|
 --------------------------------------|----------------------|

Q Q Q Q Q Q Q Q Q Q Q Q
 
 ------------6----------|--11----11----10----10----|--8----8----7----8----|
 --6---------8----------|--11----11----11----11----|--8----8----8----8----|
 -------7---------7\----|--12----12----12----12----|--8----8----7----8----|
 -----------------------|--------------------------|----------------------|
 -----------------------|--------------------------|----------------------|
 -----------------------|--------------------------|----------------------|

Q Q Q Q Q E E H Q. E H
 
 --7----8----13----15----|--17----15--17--18--------|--8------10--6--------|
 --8----8----15----16----|--15----15--15--15--------|--9------11--8--------|
 --7----8----------------|--------------------------|--8------12--8--------|
 ------------------------|--------------------------|----------------------|
 ------------------------|--------------------------|----------------------|
 ------------------------|--------------------------|----------------------|

S S E E E H S S E E E H E E E E Q Q
 
 --4-3-L------------------|--3-1-L-----------------|--3-----1--3------------|
 ---------4---------------|---------4--3-----------|-----4--------4---------|
 ----------------3--------|---------------3--------|-------------------4----|
 ------------5\-----------|------------------------|------------------------|
 -------------------------|------------------------|------------------------|
 -------------------------|------------------------|------------------------|

^
E E E E S S E S S E W W
 
 --3--1--1---------------------|-------------------|-------------------|
 -----------4--4s-1-L--1s-3-L--|--4----------------|-------------------|
 ------------------------------|--3----------------|-------------------|
 ------------------------------|-------------------|-------------------|
 ------------------------------|-------------------|-------------------|
 ------------------------------|-------------------|-------------------|

H E E E E W E E E E Q Q
 
 -----------6s--4--4s--3--|--3----------------|---------------------13----|
 -------------------------|-------------------|--8s--5--------------------|
 -------------------------|-------------------|---------5s--3--2----------|
 -------------------------|-------------------|---------------------------|
 -------------------------|-------------------|---------------------------|
 -------------------------|-------------------|---------------------------|

E E E E E E Q W
 
 ------13------13------13---------|--13----------------||
 --15------13------12-------------|--------------------||
 --------------------------10~----|---L----------------||
 ---------------------------------|--------------------||
 ---------------------------------|--------------------||
 ---------------------------------|--------------------||

Guitar 2
E E E E Q Q E E E E E S S Q
 
 E||-----1--1--1--1----1----|-----0--0--1--0-----------|
 B||------------------------|-----------------3-1-L----|
 G||------------------------|--------------------------|
 D||------------------------|--------------------------|
 A||------------------------|--------------------------|
 E||------------------------|--------------------------|

E E E E Q Q Q E E E E E E H
 
 -----------------------------|--1--1--3--1-----------------|
 -----4--4--4--4----4---------|--------------4--3--L--------|
 -----------------------------|-----------------------------|
 -----------------------------|-----------------------------|
 -----------------------------|-----------------------------|
 -----------------------------|-----------------------------|

E E E E Q. E E E E E E Q E H Q Q
 
 ------------------------|-------------------------|-----------4----3----|
 ------------------------|--------1--3--L----------|---------------------|
 --3--3--3--3--L------3--|--1--1-----------1----3--|--L------------------|
 ------------------------|-------------------------|---------------------|
 ------------------------|-------------------------|---------------------|
 ------------------------|-------------------------|---------------------|

E E E E E E Q H. E E E E Q E E Q
 
 --11--------------------10----|---------------------|------------------------|
 ------11----------------11----|--4------------3--4--|--4--4--3----2--2--3----|
 ----------8----------8--------|---------------------|------------------------|
 -------------10---L-----------|---------------------|------------------------|
 ------------------------------|---------------------|------------------------|
 ------------------------------|---------------------|------------------------|

E E Q E E Q E E E E Q Q H H
 
 ------------------------|------------------------|--------------------|
 --4--4--3----2--2--3----|--------4-----3----3----|--2-----------------|
 ------------------------|-----3-----3------------|--------------------|
 ------------------------|--5---------------------|--------------------|
 ------------------------|------------------------|--------------------|
 ------------------------|------------------------|--------------------|

W H Q Q H Q Q
 
 -------------------|-----------15----13----|-----------15----13----|
 -------------------|-----------------------|-----------------------|
 -------------------|-----------------------|-----------------------|
 -------------------|-----------------------|-----------------------|
 -------------------|-----------------------|-----------------------|
 -------------------|-----------------------|-----------------------|

H Q Q H Q Q H Q Q
 
 |------------15----13----|-----------17----15----|-----------10----8----|
 |------------------------|-----------------------|----------------------|
 |*-----------------------|-----------------------|----------------------|
 |*-----------------------|-----------------------|----------------------|
 |------------------------|-----------------------|----------------------|
 |------------------------|-----------------------|----------------------|

H Q E E H Q Q H Q Q
 
 --------------------8--|-----------15----13----|-----------17----15----|
 -----------10----6-----|-----------------------|-----------------------|
 -----------------------|-----------------------|-----------------------|
 -----------------------|-----------------------|-----------------------|
 -----------------------|-----------------------|-----------------------|
 -----------------------|-----------------------|-----------------------|

[E] [E] [E] [E] [E] [E] [E] [E] [E] [E] [E] [E] [E] [E] [E] [E]  
 
 ----------------------------|--------------------------|
 -------------8-----8-----8--|-----------8-----8-----8--|
 ----------8-----------------|--------8-----------------|
 ------10--------9-----8-----|-----7--------6-----5-----|
 --10------------------------|--6-----------------------|
 ----------------------------|--------------------------|

E E E E E E E E H Q Q
 
 ----------------------------------|-----------10----8----|
 ----------11------11----------11--|----------------------|
 ------12--12------12----------10--|----------------------|
 --13----------13------13--12------|----------------------|
 ----------------------------------|----------------------|
 ----------------------------------|----------------------|

Q E E Q Q E. S Q E. S Q Q Q Q Q
 
 -----------------------|------------------------|--6----6----6----6----|
 --6----6--5--4----3----|------------------------|--8----8----6----6----|
 -----------------------|------3-3--------3-3----|--8----8----7----7----|
 -----------------------|------------------------|----------------------|
 -----------------------|--1----------1----------|----------------------|
 -----------------------|------------------------|----------------------|

Q Q H E E E E E E E E E E E E
 
 --6----6-------------|---------------------11------11--|------11------11--|
 --4----4----4--------|-------------11------------------|------------------|
 --5----5----4--------|---------12------13------12------|--11------10------|
 ------------6--------|-----13--------------------------|------------------|
 ---------------------|---------------------------------|------------------|
 ---------------------|---------------------------------|------------------|

H Q Q H Q Q Q Q Q Q
 
 -----------15----13----|-----------15----13-----||--6----6----6----6----|
 -----------------------|------------------------||--8----8----6----6----|
 -----------------------|-----------------------*||--8----8----7----7----|
 -----------------------|-----------------------*||----------------------|
 -----------------------|------------------------||----------------------|
 -----------------------|------------------------||----------------------|

E E Q Q Q E E E E E E E E
 
 --6--6--6----6----6----|---8---8---8--8--8--8--8--8--|
 --4--4--4----4----4----|---9---9---9--9--9--9--9--9--|
 --5--5--5----5----5----|--10--10--10--9--8--8--7--7--|
 -----------------------|-----------------------------|
 -----------------------|-----------------------------|
 -----------------------|-----------------------------|

S S S S S S S S S S S S S S S S E E E E E E E E
 
 ----------------------------------|--------------------------|
 ----------------------------------|--8-----8-----6-----6-----|
 ----------------------------------|--8-----8-----7-----7-----|
 --3-3-3-3-3-3-3-3-3-3-3-3-3-3-3-3-|--8-----8-----8-----8-----|
 ----------------------------------|--------------------------|
 ----------------------------------|-----6-----6-----6-----6--|

E E E E E E E E E E E E Q Q Q. S S Q Q
 
 --3-----3-----3-----3-----|--4--4--4--4--4----4----|--1------1-1-1----1----|
 --4-----4-----4-----4-----|--6--6--6--5--4----3----|--2------2-1-0----2----|
 --5--5--5--5--5--5--5--5--|--5--5--5--5--5----5----|--1------1-1-1----1----|
 --------------------------|------------------------|-----------------------|
 --------------------------|------------------------|-----------------------|
 --------------------------|------------------------|-----------------------|

Q Q Q Q Q Q Q Q Q E E Q E E
 
 ----------------------|----------------------|------------------------|
 --5----5----5----5----|--5----5----5----5----|--7----5--5--4----5--5--|
 --6----6----6----6----|--6----6----6----6----|--7----6--6--6----6--6--|
 --7----7----7----7----|--7----7----7----7----|--7----7--7--7----7--7--|
 ----------------------|----------------------|------------------------|
 ----------------------|----------------------|------------------------|

Q E E Q E E Q E E Q E E E E Q Q Q
 
 ------------------------|------------------------|-----------------------|
 --7----5--5--4----5--5--|--7----5--5--7----5--5--|--4--4--5----7----5----|
 --7----6--6--6----6--6--|--7----6--6--7----6--6--|--6--6--6----7----6----|
 --7----7--7--7----7--7--|--7----7--7--7----7--7--|--7--7--7----7----7----|
 ------------------------|------------------------|-----------------------|
 ------------------------|------------------------|-----------------------|

E E E E Q Q E E E E Q Q Q E E E E Q
 
 ------------------------|------------------------|-------12--12--13p--12-------|
 ------------------------|------------------------|-----------------------------|
 --6--6--5--6--5----5----|--5--5--5--5--7----7----|--6--------------------------|
 ------------------------|------------------------|-----------------------------|
 ------------------------|------------------------|-----------------------------|
 ------------------------|------------------------|-----------------------------|

Q E E E E Q Q E E E E E E Q Q
 
 -------12--12--13p--12-------|-------12--12--13--12----------|-------------|
 -----------------------------|-----------------------15--13--|--12---------|
 -----------------------------|-------------------------------|-------------|
 -----------------------------|-------------------------------|-------------|
 -----------------------------|-------------------------------|-------------|
 -----------------------------|-------------------------------|-------------|

W Q Q Q Q Q E E Q Q
 
 -------------------|----------------------|------------------------|
 -------------------|--4----3----2----3----|--4----3--3--2----3/----|
 -------------------|----------------------|------------------------|
 -------------------|----------------------|------------------------|
 -------------------|----------------------|------------------------|
 -------------------|----------------------|------------------------|

Q E E Q Q E E Q E E Q Q E E Q E E
 
 -----------------------|------------------------|------------------------|
 --4----4--4--4----4----|--4--4--4----4--4--4----|--4----4--4--4----4--4--|
 --5----3--3--2----3----|--5--5--3----2--2--3----|------------------------|
 --6----5--5--4----5----|--6--6--5----4--4--5----|------------------------|
 -----------------------|------------------------|------------------------|
 -----------------------|------------------------|------------------------|

E E E E Q E E E E E E E E E E Q Q Q Q
 
 -------------------------|-----6-----6-----6-----6--|--7----6----5----6----|
 -------------------6--6--|--9-----8-----7-----6-----|--7----6----5----6----|
 --3--3--3--3--3----------|--------------------------|--8----7----6----7----|
 -------------------------|--------------------------|----------------------|
 -------------------------|--------------------------|----------------------|
 -------------------------|--------------------------|----------------------|

Q Q Q Q Q Q Q. E E E E E E E E E
 
 --7----6----5----6----|----------------------|--------------------------|
 --7----6----5----6----|--4---------4------3--|--3--4--6--4--3--4--4--4--|
 --8----7----6----7----|-------3--------------|--------------------------|
 ----------------------|----------------------|--------------------------|
 ----------------------|----------------------|--------------------------|
 ----------------------|----------------------|--------------------------|

Q Q Q E E E E E E E E E E Q Q Q E E
 
 -----------------------|--------------------------|-----------------------|
 --L---------4----------|-----------------4--4--4--|--L---------4----------|
 -------3---------3--3--|--3--3--3--3--3-----------|-------3---------3--3--|
 -----------------------|--------------------------|-----------------------|
 -----------------------|--------------------------|-----------------------|
 -----------------------|--------------------------|-----------------------|

[E] [E] [E] [E] [E] [E] [E] [E] [E] [E] [E] [E] [E] [E] [E] [E]  
 
 --------------------------|--------------------------|
 -----------------4--4--4--|--3--4--6--4--3--4--4--4--|
 --3--3--3--3--3-----------|--------------------------|
 --------------------------|--------------------------|
 --------------------------|--------------------------|
 --------------------------|--------------------------|

E E E E E E E E W Q Q Q Q
 
 --------------------------|-------------------|------------2----1----|
 --3--4--6--4--3-----4--4--|--2----------------|--3----2----3----2----|
 -----------------3--------|-------------------|--4----2----2----1----|
 --------------------------|-------------------|--4----2--------------|
 --------------------------|-------------------|----------------------|
 --------------------------|-------------------|----------------------|

Q Q Q Q H Q E E E E E E Q Q
 
 ----------------------|----------------6--6--|--6--6------------------|
 --2----3----4---------|----------------------|--------9--8--6---------|
 --3----3----3---------|----------------------|-------------------3----|
 --4----3----5---------|----------------------|------------------------|
 ----------------------|----------------------|------------------------|
 ----------------------|----------------------|------------------------|

Q. E Q E E E E E E Q Q Q. E Q. E
 
 -----------------------|--------------3----3----|----------------------|
 --4------4--4----4--4--|--3--3--3--3------------|--3------3--3------3--|
 -----------------------|------------------------|--3------3--3------3--|
 -----------------------|------------------------|----------------------|
 -----------------------|------------------------|----------------------|
 -----------------------|------------------------|----------------------|
 |---3---| |---3---| 

Q. E Q. E Q E E E Q E E E
 
 -----------------------|--10----10--10--10--10----10--10--10--|
 --3------3--3------3/--|--11----11--11--11--11----11--11--11--|
 --3------3--3------3/--|--10----10--10--10--10----10--10--10--|
 -----------------------|--------------------------------------|
 -----------------------|--------------------------------------|
 -----------------------|--------------------------------------|
 |---3---| |---3---| |---3---| 

E E E E E E E E E Q Q Q Q Q
 
 --10--10--10--10--10--10--10--10--10--10----|----------------------|
 --11--11--11--11--11--11--11--11--11--11----|----------------------|
 --10--10--10--10--10--10--10--10--10--10----|--8----8----8----8----|
 --------------------------------------------|--8----8----8----8----|
 --------------------------------------------|--6----6----6----6----|
 --------------------------------------------|----------------------|

Q Q Q Q Q Q Q Q Q Q Q Q
 
 ----------------------|----------------------|----------------------|
 ----------------------|----------------------|----------------------|
 --8----8----8----8----|--8----8----8----8----|--8----8----8----8----|
 --8----8----8----8----|--8----8----8----8----|--7----7----7----7----|
 --6----6----6----6----|--6----6----6----6----|--8----8----8----8----|
 ----------------------|----------------------|----------------------|
 |--3--| |--3--| |--3--| |--3--| 

E. S E E E E. S E E E E. S E E E S E. E E E
 
 --------------------------------|--------------------------------|
 --------------------------------|--------------------------------|
 --------------------------------|-----------------8-8---8--8--8--|
 --8---8-8--8--8--8---8-8--8--8--|--8---8-8--8--8-----------------|
 --------------------------------|--------------------------------|
 --------------------------------|--------------------------------|

>
 
 |--3--| |--3--| |--3--| 

E. S E E E E E E E E E E. S Q
 
 -----------------------------------|--------------|
 -----------------------------------|--------------|
 -----------------------------------|------6~-L----|
 --8---8-8--6--7--8--8--6--8--6-----|--------------|
 --------------------------------8--|--4-----------|
 -----------------------------------|--------------|
 |--3--| |--3--| |--3--| |--3--| 

E. S E E E E. S E E E E. S E E E S E. E E E
 
 --------------------------------|--------------------------------|
 --------------------------------|--------------------------------|
 --------------------------------|-----------------8-8---8--8--8--|
 --8---8-8--8--8--8---8-8--8--8--|--8---8-8--8--8-----------------|
 --------------------------------|--------------------------------|
 --------------------------------|--------------------------------|
 |--3--| |----3----| |--3--| |--3--| 

E. S E E E Q Q Q E. S E E E E. S E E E
 
 --------------------------------|--------------------------------|
 --------------------------------|--------------------------------|
 --------------------------------|--------------------------------|
 --6---6-6--6--6--6----6----5----|--3---3-3--3--3--3---3-3--3--3--|
 --------------------------------|--------------------------------|
 --------------------------------|--------------------------------|
 |--3--| |--3--| |--3--| 

E. S E E E E E E E E E W
 
 -----------------------------------|-------------------|
 -----------------------------------|-------------------|
 --3---3-3--------0--0--------------|-------------------|
 -----------------------3--0--------|--3----------------|
 --------------1--------------3--1--|-------------------|
 -----------------------------------|-------------------|
 |--3--| |--3--| |----3----| 

H E E E E E E Q Q Q H
 
 -----------------------------|--------------------------|
 -----------------------------|--------------------------|
 --------------------0--------|--------------------------|
 --3--------0--0--3-----3--0--|--3----3----3-------------|
 -----------------------------|-----------------1--------|
 -----------------------------|--------------------------|
 |------3-----| |----3----| |----3----| |--3-| |-3| 

Q Q E E Q Q Q Q Q Q Q E E Q
 
 ---------------------------------|---------------------------------|
 ---------------------------------|--4-------------------1--3--4----|
 ---------------------------------|-------0----1----3---------------|
 --3----3----3--3-----------------|---------------------------------|
 ------------------1----1----1----|---------------------------------|
 ---------------------------------|---------------------------------|
 |----3----| |--3--| |----3----| |--3-| |-3| 

Q Q Q E E E Q Q Q Q Q E E Q
 
 -------------------------------|---------------------------------|
 --4-----------------1----------|--4-------------------1--3--4----|
 -------0----1----3-----3--L----|-------0----1----3---------------|
 -------------------------------|---------------------------------|
 -------------------------------|---------------------------------|
 -------------------------------|---------------------------------|

W W
 
 |----3----| |--3-| |-3| |--3--| 

Q Q Q Q E E Q E E E E S S E. S S E.
 
 --1-------------------------1----|------------------------------|
 -----------------1----3--4-------|------------------1-----1-2---|
 -------2----3--------------------|-----1--3--L--1-3-----3-------|
 ---------------------------------|--4---------------------------|
 ---------------------------------|------------------------------|
 ---------------------------------|------------------------------|

W
 
 |--3--| |--3--| |--3--| |-3| |--3--| |--3--| |--3--| |-3| 

E E E E E E E E E E Q E E E E E E E E E E Q
 
 -------------------------------------|-------------------------------------|
 -----------------------------4--5----|-------------------------------------|
 -----------------4--6--4--6----------|--------------------------------3----|
 --------4--6--7----------------------|-----------------------3--4--6-------|
 --6--7-------------------------------|--------3--4--3--4--6----------------|
 -------------------------------------|--4--6-------------------------------|

W
 
 |--3--| |--3--| |--3--| |-3| |--3--| |--3--| |--3--| |--3--| 

E E E E E E E E E E Q E E E E E E E E E E E E
 
 -------------------------------------|--------------------------------------|
 -------------------------------------|--------------------------------------|
 -----------------------------0--1----|-----------------------------0--1--0--|
 --------0-----0--1--3--1--3----------|--------0-----0--1--3--1--3-----------|
 --1--3-----3-------------------------|--1--3-----3--------------------------|
 -------------------------------------|--------------------------------------|

Q Q Q Q H Q Q S S S S Q S S S S Q
 
 ----------------------|-----------6----------|--------3-6----L-----3-6----|
 ------------1---------|--3--------6----------|------4------------3--------|
 --1----3---------3----|-----------7----------|----3------------3----------|
 ----------------------|----------------8\----|----------------------------|
 ----------------------|----------------------|----------------------------|
 ----------------------|----------------------|----------------------------|

S S S S Q E. T T Q E. T T Q E. T T E E
 
 --L-----3-8-------------------|-----------------------------------|
 ------4--------3---4h-6p-4----|--3---4h-6p-4----6---8h-9p-8S--10--|
 ----5-------------------------|-----------------------------------|
 ------------------------------|-----------------------------------|
 ------------------------------|-----------------------------------|
 ------------------------------|-----------------------------------|

Q E E H E E E E E E E E
 
 -------------------------|---------------------11-----|
 --10----8--10--11--------|---9-----9-----8------------|
 -------------------------|---8--8-----8--8--8------8--|
 -------------------------|--10-----------8------------|
 -------------------------|----------------------------|
 -------------------------|----------------------------|

[E] [E] [E] [E] [E] [E] [E] [E] [E] [E] [E] [E] [E] [E] [E] [E]  
 
 --------3-----------3-----|-----------3--L----------10--|
 -----1-----1--L-----------|--------4------------11------|
 -----------------0-----0--|-----5-----------12----------|
 --------------------------|-----------------------------|
 --------------------------|-----------------------------|
 --------------------------|-----------------------------|

^ ^
E E E E H W E E E E E E E E
 
 -----------3--4--------|-------------------|-----------6--8--10--8--10--|
 --------4-----4--------|--4----------------|--------8-----9------9------|
 -----5--------4--------|--5----------------|-----8--------8------8------|
 --------------3--------|--6----------------|----------------------------|
 -----------------------|-------------------|----------------------------|
 --------------4--------|--6----------------|----------------------------|

E E E E E E E E E E E E Q Q
 
 --6--------6--8--10--8--10--|--6--------6--6----6----|
 --------8-----7------7------|--6-----6-----6----6----|
 -----8--------8------8------|--7--7--------6----6----|
 ----------------------------|------------------------|
 ----------------------------|------------------------|
 ----------------------------|------------------------|

E E E E E E E E H Q Q Q Q Q Q
 
 -----------3--6--4--4--3--|--3------------------|--10-----8-----7-----6----|
 --------5-----5-----------|--5--------6----6----|--11----10-----9-----8----|
 -----5--------5-----------|--5--------5----L----|--10----10----10----10----|
 --5-----------------------|-----------7----L----|--------------------------|
 --------------------------|---------------------|--------------------------|
 --------------------------|---------------------|--------------------------|

W
 
 --1----------------||
 -------------------||
 -------------------||
 -------------------||
 -------------------||
 -------------------||

Guitar 3
E E E E Q Q E E E E E S S Q
 
 E||-

Important: The song above is NOT stored on the Chordie server. The original song is hosted at www.guitartabs.cc. Chordie works as a search engine and provides on-the-fly formatting. Chordie does not index songs against artists'/composers' will. To remove this song please click here.

Text color:
Chord color:
Chord grids: 
Font size:    
Page size: 

E
Rate #1 of 2 versions

Login - add to songbook

SHARE PAGE  




You need to log in to post comments