Guitar Tabs, Chords and Lyrics
Server problems seems to be fixed. Chordie has been experiencing problems with songs disappearing. These issues now seems to be fixed, but still verifying the fix. If you find anything strange, please email admin@chordie.com.


Could It Be Any Harder  The Calling

Could It Be Any Harder
The Calling
chorded by: mastika lyana (mastika.lyana2k@mmu.edu.my)
24082002
*standard tuning*
F G C Am 2x
[F]You left me with [G]goodbye and open [C]arms
[F]A cut so d[G]eep I don't d[C]eserve
[F]You were always [G]invincible in my [C]eyes[Am]
[F]The only thing ag[G]ainst us now is [C]time
Chorus:
Could it [F]be any ha[G]rder to [C]say goodbye and [Am]without you,
Could it [F]be any ha[G]rder to [C]watch you go, to face what's true
[F]If I only h[G]ad one more d[Am]ay
[F]I lie down and[G] blind myself with [C]laughter[Am]
[F]A quick fix of [G]hope is what I'm [C]needing
[F]And how I wish that I could [G]turn back the [C]hours[Am]
[F]But I know I just [G]don't have the [C]power
Chorus
[F]I'd jump at the [G]chance,
We'd drink and we'd d[C]ance
And I'd listen [C]close to your every word,
[F]As if it's your [G]last, I know it's your [C]last,
Cause t[C]oday, oh, you're [F]gone
 
 X----------------------------------------
 X--1-3--5h7h5--3-1-0--1--5-1-3-0---------
 X---------------------------------2-0----
 X----------------------------------------
 X----------------------------------------
 X----------------------------------------
 X--3-5-7h9h7---3-3-3--5-5-3-3--1h3h1-0----------
 X---------------------------------------3-3--1--
 X-----------------------------------------------
 X-----------------------------------------------
 X-----------------------------------------------
 X-----------------------------------------------

[F]Could it [G]be any ha[Am]rder
[F]Could it [G]be any ha[Am]rder
Chorus
[F]Like sand on my [G]feet,
The smell of sweet p[C]erfume
You stick to me f[Am]orever
[F]And I wish you didn't g[G]o
I wish you didn't [C]go, I wish you didn't [C]go away
To [F]touch you again,
[G]With life in your [C]hands,
It couldn't [Am]be any ha[F]rder.. h[G]arder.. [C]harder

Important: The song above is NOT stored on the Chordie server. The original song is hosted at www.guitartabs.cc. Chordie works as a search engine and provides on-the-fly formatting. Chordie does not index songs against artists'/composers' will. To remove this song please click here.

Text color:
Chord color:
Chord grids: 
Font size:    
Page size: 

Am C F G
Rate #1 of 5 versions

Login - add to songbook

SHARE PAGE  




You need to log in to post comments