Guitar Tabs, Chords and Lyrics
Update 25:10. 13:00. Site is back up running again. Songbooks are recovered. Woring on getting search back up..


A Night Like This  Caro Emerald

 
 -------------------------------------------------------------------------------

A night like this (Studioversion) / Caro Emerald
 
 -------------------------------------------------------------------------------

Tabbed by: Alexander Stoehr
Email: mi.stoehr@gmx.net
Tuning: standard
Used Chords:
Cm X35543
[Ab] [466544]  
[G]Dm7 [355433]X57765 (original is used a regular Dm X57765)
Dě X5656X
C III X35553
C VIII 81010988
(f,e) = play for this little trick on the 2nd string the 6. and 5. fret while
strumming C III, listen for the rhythm to the music
Intro: Cm, Cm, Ab-G, Cm (G, Cm, G)
Verse 1:
From where you [Cm]are. You see the smoke start to arise
Where they play [G]cards
And you walk over
Softly moving passed the guards
The stakes are getting higher
You can [Cm]feel it in your heart
He calls you bluff
He is the ace you never thought
He played that [G]much
And now it's more than all this cards
You want to touch
You never know if winning this
Could [Cm]really be enough
Pre Chorus
Take a look
Beyond the [G7]moon
You see the [Cm]stars.
And when you look around
G7 C III (*fill 1)
You know the room by heart
(*fill 1)
 
 e|--0-1-0h1p0----------------------------------------------------------------|
 B|------------1--------------------------------------------------------------|
 G|--------------0------------------------------------------------------------|
 D|----------------3-2h3p2----------------------------------------------------|
 A|---------------------------------------------------------------------------|
 E|---------------------------------------------------------------------------|

Chorus:
Dm7 G C (f,e)
I have never dreamed it Have you ever dreamed a night like this
Dm7 G C (f,e)
I cannot believe it I may never see a night like this
When everything you [Dm7]think is in[G]complete
Starts happening when [C]you are cheek to cheek
Dm7 G (*fill 2) Cm VIII
Could you ever dream that I have never dreamed, dreamed a night like this
(* fill 2)
 
 e|---3-4-3-------------------------------------------------------------------|
 B|---------6-4-3-------------------------------------------------------------|
 G|---------------5-----------------------------------------------------------|
 D|-----------------5---------------------------------------------------------|
 A|-------------------6-5-3h5p3-2-3-5-3/--------------------------------------|
 E|---------------------------------------------------------------------------|

Verse 2:
How many [Cm]times
Have I been waiting by the door
To hear these [G]chimes
To hear that someone debonaire has just a arrived
And opened up to see My world before my [Cm]eyes
That silhouette creates an image
On the night I can't [G]forget
It has the scent of something special
I can't [Cm]rest If I resist temptation
Oh, I know for sure that I will lose the best
Pre chorus:
Dě G7
I walk away and suddenly it seems
I'm not [Cm]alone
Dě G7 C (* fill 1)
In front of me he stands I stop, before he goes
Chorus:
Dm7 G C (f,e)
I have never dreamed it Have you ever dreamed a night like this
Dm7 G C (f,e)
I cannot believe it I may never see a night like this
When everything you [Dm7]think is in[G]complete
Starts happening when [C]you are cheek to cheek
Dm7 G Cm (* fill 3)
Could you ever dream that I have never dreamed, dreamed a night like this
(* fill 3)
 
 e|---------------------------------------------------------------------------|
 B|----------4---3------------------------------------------------------------|
 G|------5-----------5--------------------------------------------------------|
 D|----5---5---5---5----------------------------------------------------------|
 A|--3------------------------------------------------------------------------|
 E|---------------------------------------------------------------------------|

Bridge:
Oh Oh etc
| Eb | D | Db | Cm | Cm (silent picking) | Eb | D | Db | C | C (rockstrumming)
Chorus:
Dm7 G C (f,e)
I have never dreamed it Have you ever dreamed a night like this
Dm7 G C (f,e)
I cannot believe it I may never see a night like this
When everything you [Dm7]think is in[G]complete
Starts happening when [C]you are cheek to cheek
Dm7 G Cm VIII
Could you ever dream that I have never dreamed, dreamed a night like this
************************************
| / slide up
| \ slide down
| h hammer-on
| p pull-off
| ~ vibrato
| + harmonic
| x Mute note
| b Bend
| pb Pre-bend
| br Bend release
| pbr Pre-bend release
| brb Bend release bend
************************************

Important: The song above is NOT stored on the Chordie server. The original song is hosted at www.guitartabs.cc. Chordie works as a search engine and provides on-the-fly formatting. Chordie does not index songs against artists'/composers' will. To remove this song please click here.

Text color:
Chord color:
Chord grids: 
Font size:    
Page size: 

Ab C Cm Dm7 G G7
Rate #1 of 4 versions

Login - add to songbook

SHARE PAGE  




You need to log in to post comments