Guitar Tabs, Chords and Lyrics
Login is temporarily disabled for some users. Do not panic. Will be back in an hour or two. DO NOT REREGISTER!!


Harry Truman  Chicago

Harry Truman
Chicago
Transcribed by Justin Benz
Piano, Drums
 
 G---|-----------------|--------------------|-----------------|------------------
 D---|-----------------|--------------------|-----------------|------------------
 A---|-----------------|--------3--4--5-----|-----------------|-----------5------
 E---|-----------------|--------------------|--3-----4--------|--5---------------

[A] 1st Verse
 
 G--------|--------------------|-----------------------|-------------------------
 D--------|--------------------|-----------------------|-------------------------
 A----/5--|--------------------|-----------------3--4--|--5-----5-----5--4--3----
 E--------|--3-----4--------x--|--5-----5-----x--------|-------------------------
 G---|-------------------------|----------------------------|--------------------
 D---|-------------------------|----------------------------|--------------------
 A---|--2-----2-----2--------2/|--7-----7-----7\5-----5-----|--3-----3-----4-----
 E---|-------------------------|----------------------------|--------------------
 G------------|---------------------|-----------------------|--------------------
 D------------|---------------------|-----------------------|-----------5--------
 A------4-----|--5--------(5)h7-----|--------5-----5-----5--|-----2--5-----------
 E------------|---------------------|--5--------------------|--3-----------------

[B] 2nd Verse
 
 G---------------|-----------------------|--------------------|------------------
 D---------------|-----------------------|--------------------|------------------
 A---5-----6--5--|--(5)--------(3)h5-----|--------------------|------------------
 E------3--------|-----------------------|--3-----4--------4--|--5--5-----5------
 G------------|--------------------|----------------------|----------------------
 D------------|--------------------|----------------------|--------9-------------
 A------------|--5-----5--------3--|--2-----2-----2-----2/|--7--------7-----7----
 E---------5--|--------------------|----------------------|----------------------
 G----------------|--------------------------|-----------------------------|-----
 D----------------|--------------------------|-----------------------------|-----
 A---\5-----5-----|--3-----3-----4-----4-----|--5--5--------(5)h7-----7\---|-----
 E----------------|--------------------------|-----------------------------|-----
 G---------------------------|-----------------------------|---------------------
 D---------------------------|-----------5-----------------|---------------------
 A---0--2--3--5-----5-----5--|-----2--5--------5-----6--5--|--(5)--5--5--5--5----
 E---------------------------|--3-----------------3--------|---------------------

[C] Bridge
 
 G------------------|--------------------|--------------------|------------------
 D---------(5)h7\---|--------------------|--------------------|------------------
 A---5--5-----------|--3--3--------x-----|-----------------3--|--1--1------------
 E------------------|-----------------3--|--1--1--------1-----|------------------
 G-----|--------------------------|--------------------|-------------------------
 D-----|--------------------------|--------------------|-----------------3--1----
 A---1/|--6--6--------3--6--5--4--|--3--3--------------|--------------3----------
 E-----|--------------------------|--------------x--3--|--1--1-------------------

[D] 3rd Verse
 
 G------|-------------------------|--------------------------|-------------------
 D------|-------------------------|--------------------------|-------------------
 A---3--|--1--1--------x--1--1--1/|--6-----6--5-----5--5-----|-------------------
 E------|-------------------------|--------------------------|--3-----4-----4----
 G---------|--------------------------|----------------------|-------------------
 D---------|--------------------------|----------------------|-------------------
 A---------|--------------------3--4--|--5-----5-----5-----5\|--2-----2----------
 E------x--|--5-----5-----5-----------|----------------------|-------------------
 G---------------|----------------------------|--------------------------|-------
 D---------------|----------------------------|--------------------------|-------
 A---(0)h2-----2/|--7-----7-----7\5-----5-----|--3-----3-----4-----4-----|--5----
 E---------------|----------------------------|-----3-----3--------------|-------
 G---------------------------------|-----------------------------|---------------
 D---------------------------------|-----------------------------|---------------
 A---5--------(5)h7-----7--7-----7\|--0--2--3--5-----5--5-----5--|-----2--5------
 E---------------------------------|-----------------------------|--3------------
 G---------------------|---------------------------------------------------------
 D---5-----5-----------|---------------------------------------------------------
 A------------5--6--5--|--(5)--5--5--5-----5--5----------------------------------
 E---------------------|----------------------------3----------------------------

[E] Bridge (w/ Woodwinds)
 
 G---|--------------------------|--------------------------|---------------------
 D---|--------------------------|-----------------3--------|---------------------
 A---|--3--3-----------3--------|--------------3-----1--2--|--1--1--------1------
 E---|--------------3-----0--3--|--1--1--------------------|---------------------
 G-----|--------------------------|--------------------------|-------------------
 D-----|--------------------------|--------------------------|-------------------
 A---1/|--6--6-----------6--5--4--|--3--3-----------3--------|--------------3----
 E-----|--------------6-----------|--------------3-----0--3--|--1--1-------------
 G------------|----------------------|-------------------------------------------
 D---3--1-----|----------------------|-------------------------------------------
 A---------3--|--1--1--------1-----1/|--6--------5-----5-------------------------
 E------------|----------------------|-------------------------------------------

[F] 4th Verse (w/ Chorus)
 
 G---|--------------------|--------------------------|---------------------------
 D---|--------------------|--------------------------|---------------------------
 A---|--------------------|--------------------3--4--|--5-----5-----5--4--3------
 E---|--3-----4--------x--|--5-----5-----5-----------|---------------------------
 G---|-------------------------------|-------------------------|-----------------
 D---|-------------------------------|-------------------------|-----------------
 A---|--2--2-----0--2--2--2--0h2--5--|/7-----7-----5-----5-----|--3-----3--------
 E---|-------------------------------|-------------------------|-----------------
 G---------------|--------------------------------|------------------------------
 D---------------|--------------------------------|------------------------------
 A---4-----4-----|--5-----(5)h7-----7--7--7\---0--|--0--2--3--5-----5--5--5------
 E---------------|--------------------------------|------------------------------

[G] Ending
 
 G---|--------------------------------|---------------------------------|--------
 D---|--------------------------------|---------------------------------|--------
 A---|--------------------------------|-------------------------------7\|--0-----
 E---|--3--3--3-----3--3--3--2--0--0--|--(0)--0--0-----0--0--0--0--0----|--------
 G------------------------|---------------------------------------|--------------
 D------------------------|---------------------------------------|--------------
 A---0--0--0--2--2--3--4--|--5--5--5--(3)h5-----5--5--5-----------|--------2-----
 E------------------------|---------------------------------5--5--|--3--3--------
 G------------------|----------------------------|-----------------------|-------
 D------5-----------|----------------------------|-----------------------|-------
 A---5-----5--------|----------------------------|--0-----0-----0--2--3--|--5----
 E------------3--0--|--(0)--0--0--0--0--0--0--0--|-----------------------|-------

Applause!
 
 G---------------------|-----------------------------|--------------|------------
 D---------------------|-----------------------------|--------------|------------
 A------5-----5--5--5--|--------6--5-----4--3--------|--------------|------------
 E---------------------|--3-----------------------4--|--3-----------|------------
 G------------||-----------------------------------------------------------------
 D------------||-----------------------------------------------------------------
 A------------||-----------------------------------------------------------------
 E------------||-----------------------------------------------------------------

================================================================================
== Created with a demo version of BUCKET O' TAB ==
== tablature creation software for Windows ==
== http://www.his.com/~gse/bucket ==
================================================================================

Important: The song above is NOT stored on the Chordie server. The original song is hosted at www.guitartabs.cc. Chordie works as a search engine and provides on-the-fly formatting. Chordie does not index songs against artists'/composers' will. To remove this song please click here.

Text color:
Chord color:
Chord grids: 
Font size:    
Page size: 

A B C D E F G
Rate #1 of 1 versions

Jango Player

Login - add to songbook

SHARE PAGE  




You need to log in to post comments