Guitar Tabs, Chords and Lyrics
Major upgrade!! After one year development the new version of Chordie is now online! Please give feedback.


Blood Red Summer   Coheed and Cambria

 
 --------------------------------------------------------------------------

 


 BLOOD RED SUMMER - Coheed and Cambria


 

 
 --------------------------------------------------------------------------

 


 


 Tabbed by: joecool71


 Email: mattconnellan@yahoo.com


 


 Tuning: Standard


 


 Here's my fifth installment in the Coheed series, and a welcome break after The Crowing. Enjoy!!


 


 Verse


 

 
 e|--------------------------------------------------------------------|
 B|--------------------------------------------------------------------|
 G|--------------------------------------------------------------------|
 D|-999999999999999-8999999999999999-----------------------------------|

 


 A|-777777777777777-6777777777777777-777777777777777-67777777777777777-|


 

 
 E|----------------------------------555555555555555-45555555555555555-|

 


 .............. .............. .............. ...............


 Verse lead


 

 
 e|-------------------------------------------------------------------------------|
 B|-------------------------------------------------------------------------------|
 G|-------------------------------------------------------------------------------|
 D|-------------------------------------------------------------------------------|
 A|-------7--------7----------7---------------------------------------------------|
 E|-0-7h9---7-77-9---7--0-7h9---7-9-5-4-2-0--0-0h2-4-5-4-2-4-0--0-0h2-4-5-4-2-4-0-|

 


 


 Fills 1 & 2


 

 
 e|----------|-------------|
 B|----------|-------------|
 G|----------|-------------|
 D|----------|-------------|
 A|----------|-77-66-55-44-|
 E|-4-5--7-4-|-------------|

 


 


 Chorus


 

 
 e|---------------------------------------------------------------------|
 B|---------------------------------------------------------------------|
 G|-----------------------------------999999999999999-79999999999999999-|

 


 D|-9999999999999999-7777777777777777-999999999999999-79999999999999999-|


 A|-9999999999999999-7777777777777777-777777777777777-57777777777777777-|


 

 
 E|-7777777777777777-5555555555555555-----------------------------------|

 


 [ Tab from: bttp://www.guitartabs.cc/tabs/c/cobeed_and_cambria/blood_red_summer_tab.btml ] 


 Chorus lead


 

 
 e|---------------------------------------------------------------------|
 B|---------------------------------------------------------------------|
 G|--------------------------------------99--99--99-9-9--99--99--99-9-9-|
 D|-----7-6-6-----6------------------7-9---99--99--9----9--99--99--9----|
 A|-7-9-------7-9---7---------7-9-11------------------------------------|
 E|--------------------7-9-11-------------------------------------------|

 


 


 Bridge (chords)


 

 
 e|----------------|
 B|----------------|
 G|----------------|
 D|-11---9---7---7-|
 A|-11---9---7---7-|
 E|-9----7---5---5-|

 


 


 Bridge lead


 

 
 e|------------------------------------------------------------------------------|
 B|----------9-10-9------------------9-10-9--------------------------------------|
 G|-6h9-9/11--------11-9-6--9p6-9/11--------11-9--9-8-9-11-9-8----9-8-9-11-9---8-|
 D|------------------------------------------------------------9-------------9---|
 A|------------------------------------------------------------------------------|
 E|------------------------------------------------------------------------------|


Important: The song above is NOT stored on the Chordie server. The original song is hosted at www.guitartabs.cc. Chordie works as a search engine and provides on-the-fly formatting. Chordie does not index songs against artists'/composers' will. To remove this song please click here.

This song is displayed as text-only. Transposing and tuning is only available for chordpro-songs.
Rate #1 of 7 versions

Login - add to songbook

SHARE PAGE  




You need to log in to post comments