Guitar Tabs, Chords and Lyrics
Major upgrade!! After one year development the new version of Chordie is now online! Please give feedback.


Cuts Marked in the March of Men   Coheed and Cambria

 
 --------------------------------------------------------------------------

 


 CUTS MARKED IN THE MARCH OF MEN - Coheed and Cambria


 

 
 --------------------------------------------------------------------------

 


 Tabbed by: joecool71


 Email: mattconnellan@yahoo.com


 


 Tuning: Standard


 


 Here is the second tab in my Coheed series... Easier than the last one thank god. Have fun!


 


 Verse


 

 
 e|---------------------------------------------------|
 B|---------------------------------------------------|
 G|---------------------------------------------------|
 D|---------------------------------------------------|
 A|-44-44400-222---444-2-0---44-44400-222---444-2-0---|
 E|-22----------44---------4-22----------44---------4-|

 


 


 Verse lead 1


 

 
 e|-----------------------------------|
 B|------10h12p10\\----12-10----10----|
 G|----9---------------------11----11-|
 D|-11--------------------------------|
 A|-----------------------------------|
 E|-----------------------------------|

 


 


 Verse lead 2 (played only during 3rd time through each verse passage)


 

 
 e|----------------------16-14-----------------------------------------16-14-------------|
 B|-------------15-14-15-------15-14h15p14--------------------15-14-15-------15-14h15p14-|
 G|-14-13h14p13----------------------------16-14--14-13h14p13----------------------------|
 D|--------------------------------------------------------------------------------------|
 A|--------------------------------------------------------------------------------------|
 E|--------------------------------------------------------------------------------------|

 


 


 Prechorus


 

 
 e|------------------------------|--|--------------|
 B|------------------------------|--|--------------|
 G|-------------999-777777777777-|--|--------------|
 D|-2/4-4/6-6/7-999-777777777777-|X4|-444444444444-|
 A|-2/4-4/6-6/7-777-555555555555-|--|-444444444444-|
 E|-0/2-2/4-4/5------------------|--|-222222222222-|

 


 


 Prechorus lead


 

 
 e|------12--------------------------------------|
 B|-9/10----12-10-9-10-9h10p9--------------------|
 G|---------------------------11---9----9------9-|
 D|----------------------------------11---9-11---|
 A|----------------------------------------------|
 E|----------------------------------------------|

 


 . . . . . .


 Chorus (Chords)


 

 
 e|---------------|
 B|---------------|
 G|-------------7-|
 D|-9---7---5---7-|
 A|-9---7---5---5-|
 E|-7---5---3-----|

 


 


 Chorus lead (starts during final bar of prechorus)


 

 
 e|-0-5-0-9-0-10-0-9-0-7-9-0-5-0-9-0-10-0-9-0-7-9-0-5-0-9-0-12-0-10-0-9-10-0-5-0-9-0-10-0-9-0-7-9-----|
 B|---------------------------------------------------------------------------------------------------|
 G|---------------------------------------------------------------------------------------------------|
 D|---------------------------------------------------------------------------------------------------|
 A|---------------------------------------------------------------------------------------------------|
 E|---------------------------------------------------------------------------------------------------|

 


 


 Break


 

 
 e|----------------------------|
 B|----------------------------|
 G|----------------------------|
 D|-9-7-7-----9-----7-7----4---|
 A|-9-7-7---7---4/5-----045-54-|
 E|-7-5-5-5--------------------|

 


 [ Tab from: bttp://www.guitartabs.cc/tabs/c/cobeed_and_cambria/cuts_marked_in_tbe_marcb_of_men_tab.btml ] 


 Bridge


 

 
 e|--------------------------------------------------|
 B|--------------------------------------------------|
 G|--------------------------------------------------|
 D|-7-7--7-7--9-9--9-9--12-12--12-12-14-11-11--11-11-|
 A|-7-7--7-7--7-7--7-7--10-10--10-10-10-10-10--10-10-|
 E|--------------------------------------------------|

 


 


 Bridge lead 1


 

 
 e|----------------|
 B|-10--12--17--14-|
 G|-9---11--16--14-|
 D|----------------|
 A|----------------|
 E|----------------|

 


 


 Bridge lead 2


 

 
 e|----------------------|
 B|----------------------|
 G|-4-3-4-3----7---7-----|
 D|---------4----9---9-7-|
 A|----------------------|
 E|----------------------|

 


 


 Extra part!!!


 

 
 e|------------------------------------------------|
 B|------------------------------------------------|
 G|-------------------------77-7-777-7-777-7-777-7-|
 D|-77-77-77-77-77-77-77-77-77-7-777-7-777-7-777-7-|
 A|-77-77-77-77-77-77-77-77-55-5-555-5-555-5-555-5-|
 E|-55-55-55-55-55-55-55-55------------------------|


Important: The song above is NOT stored on the Chordie server. The original song is hosted at www.guitartabs.cc. Chordie works as a search engine and provides on-the-fly formatting. Chordie does not index songs against artists'/composers' will. To remove this song please click here.

This song is displayed as text-only. Transposing and tuning is only available for chordpro-songs.
Rate #1 of 6 versions

Login - add to songbook

SHARE PAGE  




You need to log in to post comments