Guitar Tabs, Chords and Lyrics
Major upgrade!! After one year development the new version of Chordie is now online! Please give feedback.


Devil in Jersey City   Coheed and Cambria

 
 -------------------------------------------------------------------------------

 


 DEVIL IN JERSEY CITY - Coheed and Cambria


 

 
 -------------------------------------------------------------------------------

 


 


 Tabbed by: joecool71


 Email: mattconnellan@yahoo.com, mconne@lincoln.navy.mil


 


 Tuning: Standard


 


 The second song in my new Coheed series, this song is the catchiest one on The


 Second Stage Turbine Blade. Scream sayonara!


 


 Verse (chords) (not palm muted the 3rd time through each verse)


 

 
 e|-----------|
 B|-----------|
 G|-----7-----|
 D|-9---7---5-|
 A|-9---5---5-|
 E|-7-------3-|

 


 . . .


 Verse lead


 

 
 e|-------------14----------------15-------17-------|
 B|----17-15-------15----17-15-------15-------15----|
 G|-16-------16-------16-------16-------16-------16-|
 D|-------------------------------------------------|
 A|-------------------------------------------------|
 E|-------------------------------------------------|

 


 


 Prechorus


 

 
 e|----------------------------|
 B|----------------------------|
 G|----------------------------|
 D|-7/9-9-----5---7-5-4--------|
 A|-7/9-9-X8--5-5-------7-5-X4-|
 E|-5/7-7-----3----------------|

 


 


 Chorus (chords)


 

 
 e|-------------------------|
 B|-------------------------|
 G|-------------------------|
 D|-7---5---9---7---4-5---5-|
 A|-7---5---9---7---4-5---5-|
 E|-5---3---7---5---2-3---3-|

 


 . .


 Chorus lead


 

 
 e|------------------------------------|
 B|-----------7-7---------------5-5----|
 G|-0h7p5-4p0-7-7----—0h7p5-4p0-7-7----|
 D|---------------X2----------------X2-|
 A|------------------------------------|
 E|------------------------------------|

 


 


 Bridge (each time through is a variation on this first riff)


 

 
 e|------------------------------5-----5-----|
 B|---0----0-2---2---2-2/3-----3---3-----3---|
 G|------------2---2-2-2-----4-4-----4-----4-|
 D|----------------2-2-------0-0-------------|
 A|-0----0---------0-0-------0---------------|
 E|------------------------3-3---------------|

 


 T T


 Bridge lead 1 (probably a bass guitar on the recording, here is is for guitar anyway)


 

 
 e|----------------------------------|
 B|----------------------------------|
 G|----------------------------------|
 D|----------------------------------|
 A|-2/4------4-5-7--5--4-4h5p4-------|
 E|-----5--5-------------------5-5\3-|

 


 [ Tab from: bttp://www.guitartabs.cc/tabs/c/cobeed_and_cambria/devil_in_jersey_city_tab_ver_2.btml ] 


 Bridge lead 2


 

 
 e|-------------------------------------------------------------------------------2-2----|
 B|-------------------------------------------------------------------------2h3-3-----3/-|
 G|--------------------------------------------------------------------------------------|
 D|-0--7--5--4--0-2h4-0--7-7-7--7-7\0-2-2-2-2-2-2-2-2-2-2-2-2-2/7-7-7-7-0-0--------------|
 A|--------------------------------------------------------------------------------------|
 E|--------------------------------------------------------------------------------------|

 


 


 Outro


 

 
 e|---------------------------------------------------------------------------|
 B|--------------19-19—-------------17-17-------------------------------------|
 G|--------------19-19--------------18-18-------------------------------------|
 D|-0H19P17-15P0-------0H19P17-15P0-------X2--5-5-5-5-5-5-5-5-5-5-5-5-5-5-5-5-|
 A|-------------------------------------------5-5-5-5-5-5-5-5-5-5-5-5-5-5-5-5-|
 E|-------------------------------------------3-3-3-3-3-3-3-3-3-3-3-3-3-3-3-3-|


Important: The song above is NOT stored on the Chordie server. The original song is hosted at www.guitartabs.cc. Chordie works as a search engine and provides on-the-fly formatting. Chordie does not index songs against artists'/composers' will. To remove this song please click here.

This song is displayed as text-only. Transposing and tuning is only available for chordpro-songs.
Rate #1 of 2 versions

Login - add to songbook

SHARE PAGE  




You need to log in to post comments