Guitar Tabs, Chords and Lyrics
Major upgrade!! After one year development the new version of Chordie is now online! Please give feedback.


In Keeping Secrets of Silent Earth: 3   Coheed and Cambria

 
 ------------------------------------------------------------------------

 


 IN KEEPINS SECRETS OF SILENT EARTH: 3 - Coheed and Cambria


 

 
 ------------------------------------------------------------------------

 


 


 Tabbed by: joecool71


 Email: mattconnellan@yahoo.com


 


 Tuning:Standard


 


 This is the first in my series of Coheed tabs. I hope that soon I will have the entire


 cd on this website, but whew! These songs are long and complicated, so enjoy! The


 lyrics at the end will have the key of when you're supposed to play the parts & how


 many repeats there are.


 


 1st half intro


 

 
 e|---------------------------------------------------------------------->
 B|---------------------------------------------------------------------->
 G|---------------------------------------------------------------------->
 D|---------------------------------------------------------------------->
 A|---11-11---11-11---11---12-11-----11-11---11---11-12-14-12-11-11h12-0->
 E|-9-------9-------9----9-------9-0-------0----0------------------------>
 e|------------------------------------------------|
 B|------------------------------------------------|
 G|------------------------------------------------|
 D|----------------------------------------------9-|
 A|-----9-9-9---9-9---9---9/11-9-7p0-----7-7---7---|
 E|-0h7-------7-----7---7------------0h5-----5-----|

 


 


 1st half intro, lead


 

 
 e|-----------------------------------------------------------|
 B|-----------------------------------------------------------|
 G|-9---8--6-8-9-11---13~---11-9-8-9-8-6-8---6-8-9-11---13~~~-|
 D|-----------------------------------------------------------|
 A|-----------------------------------------------------------|
 E|-----------------------------------------------------------|

 


 


 2nd half intro/Chorus (chords)


 

 
 e|----------------|
 B|----------------|
 G|----------------|
 D|-11---2---9---7-|
 A|-11---2---9---7-|
 E|-9----0---7---5-|

 


 


 2nd half intro, lead


 

 
 e|---------------------------|--|---------------------------------7---7---7---7---4---4---4---4-|
 B|---------------------------|--|-----------------------------------5---5---5-------5---5---5---|
 G|-999888999888999888-11-9-6-|--|-------------------------------66---6---6---6--66---6---6---6--|
 D|-xxxxxxxxxxxxxxxxxx-x--x-x-|X2|-------------6-----9-------------------------------------------|
 A|-777666777666777666-9--7-4-|--|-------6-7-9---9-7---7-6-7-6-----------------------------------|
 E|---------------------------|--|-6-7-9-----------------------7---------------------------------|

 


 


 Verse


 

 
 e|---------------------------------------|
 B|---------------------------------------|
 G|-6-6-----------------------------8/9\8-|
 D|-6-6------6---------9-9--9-9-7-7-x-----|
 A|-4-4--4-7---7-6-6h7-9-9--9-9-7-7-6/7\6-|
 E|--------------------7-7--7-7-5-5-------|

 


 . . . . . . . .


 Pechorus


 

 
 e|----------------------|--|---------------|
 B|----------------------|--|---------------|
 G|---------6------------|--|---------------|
 D|-444-444-6-6-7-9-6764-|X3|-444-444-6--7--|
 A|-444-444-4-6-7-9-6764-|--|-444-444-6--7--|
 E|-222-222---4-5-7-4542-|--|-222-222-4--5--|

 


 ....


 Chorus lead (only played over 2nd measure of chorus riff)


 

 
 e|-----------------------|
 B|-----------------------|
 G|-13--13\11--11\9--9/11-|
 D|-x---x-------x----x----|
 A|-11--11\9----9\7--7/9--|
 E|-----------------------|

 


 


 Phase II


 

 
 e|-----------------------------------------------|
 B|-----------------------------------------------|
 G|----------------------------------------420----|
 D|-2-2--------2-2--------2-2-----------020---420-|
 A|-2-2-2h3-2--2-2-2h3-5--2-2-2h3-2--023----------|
 E|-0-0--------0-0--------0-0---------------------|

 


 


 Phase III


 

 
 e|----------------|--|--------------------------------|
 B|----------------|--|--------------------------------|
 G|----------------|--|---9-10-12-10-9p0-7-9-5-7-9-7p0-|
 D|---9-10-12-9-10-|X3|-7------------------------------|
 A|-7--------------|--|--------------------------------|
 E|----------------|--|--------------------------------|

 


 [ Tab from: bttp://www.guitartabs.cc/tabs/c/cobeed_and_cambria/in_keeping_secrets_of_silent_eartb_3_tab_ver_4.btml ] 


 Phase III lead (Lead starts at end of 1st time through)


 

 
 e|-12-----12-----13p0--12-----12-----12-----10p0--12-----12-----12-----13p0--12------>
 B|---10-10--10-10----10--10-10--10-10--10-10----10--10-10--10-10--10-10----10--10-10->
 G|----------------------------------------------------------------------------------->
 D|----------------------------------------------------------------------------------->
 A|----------------------------------------------------------------------------------->
 E|----------------------------------------------------------------------------------->
 e|-10p0--12p0--13p0--12p0-----------|
 B|-----10----10----10----0--8888888-|
 G|--------------------------7777777-|
 D|----------------------------------|
 A|----------------------------------|
 E|----------------------------------|

 


 


 Phase IV


 

 
 e|----------------------------|
 B|----------------------------|
 G|--------------------0-------|
 D|-----5-53202------0---0-----|
 A|---3--------3---5-------5/7-|
 E|-1------------3-------------|

 


 


 Phase V


 

 
 e|---------------------------------------------------------|
 B|---------------------------------------------------------|
 G|---------------------------------------------------------|
 D|-7------------3----------7------------3------------------|
 A|-7---7h8-7\\--3---5--3-2-7---7h8-7\\--3--7-8-10--7-5-----|
 E|-5------------1----------5------------1--------------8-7-|

 


 Break


 

 
 e|---------------3p0---------------------------|
 B|-------------------3p1-0h1p0-----0h1p0-------|
 G|-10---12---9-----------------2---------2---2-|
 D|-10---12---9-------------------3---------3-2-|
 A|-----------7-------------------------------0-|
 E|---------------------------------------------|


Important: The song above is NOT stored on the Chordie server. The original song is hosted at www.guitartabs.cc. Chordie works as a search engine and provides on-the-fly formatting. Chordie does not index songs against artists'/composers' will. To remove this song please click here.

This song is displayed as text-only. Transposing and tuning is only available for chordpro-songs.
Rate #1 of 5 versions

Login - add to songbook

SHARE PAGE  



You need to log in to post comments