Guitar Tabs, Chords and Lyrics
Major upgrade!! After one year development the new version of Chordie is now online! Please give feedback.


The End Complete III: The End Complete  Coheed and Cambria

THE END COMPLETE III: THE END COMPLETE
As recorded by Coheed And Cambria
(From the 2007 Album GOOD APOLLO I'M BURNING STAR IV VOLUME TWO: NO WORLD FOR TOMORROW)
Gtr I (E A D G B E) - 'Untitled'
Gtr II (E A D G B E) - 'Untitled'
Gtr III (E A D G B E) - 'Untitled'
Gtr IV (E A D G B E) - 'Untitled'
Gtr V (E A D G B E) - 'Untitled'
Gtr VI (E A D G B E) - 'Untitled'
Intro
Q=140
E5 AsusG AsusN.C.
[4/4] Gtr I
 
 PM----------------------------------------

W E E E E E E E E E E E E E E E E
 
 |----------|-----------------|------------------------|
 |----------|-----------------|------------------------|
 |----------|-----------------|------------------------|
 |----------|-9-9-9-9-9-9-9-9-|--9--9--9--9--9--9--9-9-|
 |----------|-7-7-7-7-7-7-7-0-|-10-10-10-10-10-10-10-0-|
 |----------|-----------------|------------------------|

|
| Gtr II
| W W W
 
 |----------|-----------------|------------------------|
 |----------|-----------------|------------------------|
 |----------|-----------------|------------------------|
 |----------|-----------------|------------------------|
 |----------|-----------------|------------------------|
 |----------|-----------------|------------------------|

[AsusF] [A] [D5]  
 
 ---------------------------|

[E] [E] [E] [E] [E] [E] [E] [E] [E] [E] [E] [E] [E] [E] [E] [E]  
 
 |-----------------|-------------------|
 |-----------------|-------------------|
 |-----------------|-------------------|
 |-9-9-9-9-9-9-9-9-|-7-7-7-7-7-7-7-7---|
 |-8-8-8-8-8-8-8-0-|-8-8-8-8-8-5-5-5---|
 |-----------------|-------------------|

|
| W H E E E E
 
 |-----------------|-------------------|
 |-----------------|-------------------|
 |-----------------|-------------------|
 |-----------------|-----------7-7-7---|
 |-----------------|-----------5-5-5---|
 |-----------------|-------------------|

E5 AsusG AsusN.C.
 
 PM----------------------------------------

[E] [E] [E] [E] [E] [E] [E] [E] [E] [E] [E] [E] [E] [E] [E] [E]  
 
 |-----------------|------------------------|
 |-----------------|------------------------|
 |-----------------|------------------------|
 |-9-9-9-9-9-9-9-9-|--9--9--9--9--9--9--9-9-|
 |-7-7-7-7-7-7-7-0-|-10-10-10-10-10-10-10-0-|
 |-----------------|------------------------|

|
| E E E E E E E E E E E E E E E E
 
 |-----------------|------------------------|
 |-----------------|------------------------|
 |-----------------|------------------------|
 |-9-7-7-7-9-7-7-7-|--9--7--7--7--9--7--7-7-|
 |-7-5-5-5-7-5-5-5-|--7--5--5--5--7--5--5-5-|
 |-----------------|------------------------|

[AsusF] [A] [D5]  
 
 ---------------------------|

[E] [E] [E] [E] [E] [E] [E] [E] [E] [E] [E] [E] [E] [E] [E] [E]  
 
 |-----------------|-----------------||
 |-----------------|-----------------||
 |-----------------|-----------------||
 |-9-9-9-9-9-9-9-9-|-7-7-7-7-7-7-7-7-||
 |-8-8-8-8-8-8-8-0-|-8-8-8-8-8-5-5-5-||
 |-----------------|-----------------||

|
| W H E E E E
 
 |-----------------|-----------------||
 |-----------------|-----------------||
 |-----------------|-----------------||
 |-----------------|-----------7-7-7-||
 |-----------------|-----------5-5-5-||
 |-----------------|-----------------||

Verse
E5 AsusG AsusN.C.
Gtrs I, II
 
 PM----------------------------------------

[E] [E] [E] [E] [E] [E] [E] [E] [E] [E] [E] [E] [E] [E] [E] [E]  
 
 ||------------------|------------------------|
 ||o-----------------|------------------------|
 ||------------------|------------------------|
 ||--9-9-9-9-9-9-9-9-|--9--9--9--9--9--9--9-9-|
 ||o-7-7-7-7-7-7-7-0-|-10-10-10-10-10-10-10-0-|
 ||------------------|------------------------|

[AsusF] [A] [D5]  
 
 ---------------------------|

E E E E E E E E E E E E E E E E 3x
 
 |-----------------|-------------------||
 |-----------------|------------------o||
 |-----------------|-------------------||
 |-9-9-9-9-9-9-9-9-|-7-7-7-7-7-7-7-7---||
 |-8-8-8-8-8-8-8-0-|-8-8-8-8-8-5-5-5--o||
 |-----------------|-------------------||

E5 AsusG AsusN.C.
 
 PM----------------------------------------

[E] [E] [E] [E] [E] [E] [E] [E] [E] [E] [E] [E] [E] [E] [E] [E]  
 
 |-----------------|------------------------|
 |-----------------|------------------------|
 |-----------------|------------------------|
 |-9-9-9-9-9-9-9-9-|--9--9--9--9--9--9--9-9-|
 |-7-7-7-7-7-7-7-0-|-10-10-10-10-10-10-10-0-|
 |-----------------|------------------------|

[AsusF]  
 
 ---------------|

[E] [E] [E] [E] [E] [E] [E] [E] [E] [E] [E] [E] [E] [E] [E] [E]  
 
 |-----------------|-----------------||
 |-----------------|-----------------||
 |-----------------|-----------------||
 |-9-9-9-9-9-9-9-9-|-7-7-7-7-7-7-7-7-||
 |-8-8-8-8-8-8-8-0-|-8-8-8-8-8-8-8-8-||
 |-----------------|-----------------||

horus
$
[C5]Gtr I
W +W
 
 ||--------------------|-------------------|
 ||o-------------------|-------------------|
 ||--------------------|-------------------|
 ||--10----------------|-(10)--------------|
 ||o-10----------------|-(10)--------------|
 ||---8----------------|--(8)--------------|

|
| Gtr II
| ~
| E E E E E E E E E E E E E E Q
 
 ||--------------------|-------------------|
 ||o------7---8---10---|---8----7---8-7----|
 ||---9-9---9---9----9-|------9---9-----9--|
 ||--------------------|-------------------|
 ||o-------------------|-------------------|
 ||--------------------|-------------------|

[E5]W +W
 
 |------------------|--------------------|
 |------------------|--------------------|
 |------------------|--------------------|
 |-2----------------|-(2)----------------|
 |-2----------------|-(2)----------------|
 |-0----------------|-(0)----------------|

|
| E E E E E E E E E E E E E E E E
 
 |------------------|--------------------|
 |-----7---8---10---|--8----7---8-7------|
 |-9-9---9---9----9-|-----9---9-----9s7--|
 |------------------|--------------------|
 |------------------|--------------------|
 |------------------|--------------------|

To Coda
[C5] W +W [E5]W [G5]H [B5]H
 
 |-------------------|-------------------|------------------|------------------||
 |-------------------|-------------------|------------------|-----------------o||
 |-------------------|-------------------|------------------|------------------||
 |-10----------------|-(10)--------------|-2----------------|-5-------9--------||
 |-10----------------|-(10)--------------|-2----------------|-5-------9-------o||
 |--8----------------|--(8)--------------|-0----------------|-3-------7--------||

|
| ~
| E E E E E E E E E E E E E E Q E E E E E E E E E E E E E E E E
 
 |-------------------|-------------------|------------------|------------------||
 |------7---8---10---|---8----7---8-7----|-----7---8---10---|-8---7---8-7-----o||
 |--9-9---9---9----9-|------9---9-----9--|-9-9---9---9----9-|---9---9-----9s7--||
 |-------------------|-------------------|------------------|------------------||
 |-------------------|-------------------|------------------|-----------------o||
 |-------------------|-------------------|------------------|------------------||

E5 AsusG AsusN.C.
 
 PM----------------------------------------------

[E] [E] [E] [E] [E] [E] [E] [E] [E] [E] [E] [E] [E] [E] [E] [E]  
 
 ||------------------------|------------------------|
 ||o-----------------------|------------------------|
 ||------------------------|------------------------|
 ||--9-9--9-9-9-9---9----9-|--9--9--9--9--9--9--9-9-|
 ||o-7-7--7-7-7-7---7----0-|-10-10-10-10-10-10-10-0-|
 ||------------------------|------------------------|

|
| Gtr III
 
 | PM----------------------------------------------
 | |---3----|

| E E E E q q q E E E E E E E E
 
 ||------------------------|------------------------|
 ||o-----------------------|------------------------|
 ||------------------------|--9-11-12--9-11-------9-|
 ||---------7--------------|----------------12-12---|
 ||o-7-9-10---9---9---10---|------------------------|
 ||------------------------|------------------------|

D.S. al Coda
[Asus2F] [A]  
 
 ---------------------------------|

E E E E E E E E E E E E E E E E 4x
 
 |---------------------|------------------------||
 |---------------------|-----------------------o||
 |---------------------|------------------------||
 |-9--9-9--9-9--9-9--9-|--7-7-7--7--7--7--7-7---||
 |-8--8-8--8-8--8-8--0-|--8-8-8--8--8--5--5-5--o||
 |---------------------|------------------------||

|
 
 |------------------------------------------|

| E E E E E E E E E E E E E E E E 4x
 
 |---------------------|------------------------||
 |---------------------|-----------------------o||
 |---------------------|------9-12-14-12-11-9---||
 |-9-10-9-10-9-10-9-10-|-10-9-------------------||
 |---------------------|-----------------------o||
 |---------------------|------------------------||

Bridge
&
[Em]Gtr I[C5]
 
 PM---------------------------------------------------

[E] [E] [E] [E] [E] [E] [E] [E] [E] [E] [E] [E] [E] [E] [E] [E] [E] [E] [E] [E] [E] [E] [E] [E]  
 
 ||------------------|-----------------|-----------------|
 ||o-----------------|-----------------|-----------------|
 ||------------------|-----------------|-----------------|
 ||--5-5-5-5-5-5-5-5-|-5-5-5-5-5-5-5-5-|-5-5-5-5-5-5-5-5-|
 ||o-7-7-7-7-7-7-7-7-|-7-7-7-7-7-7-7-7-|-3-3-3-3-3-3-3-3-|
 ||------------------|-----------------|-----------------|

|
| Gtr II
| E E E E E Q E E E E E E E E E E E E E E Q E
 
 ||------------------|-----------------|-----------------|
 ||o-----8-7---------|-8-7-----8-7-----|-----8-7---------|
 ||----7-----9-7---7-|-----9-7-----9-7-|---7-----9-7---7-|
 ||------------------|-----------------|-----------------|
 ||o-----------------|-----------------|-----------------|
 ||------------------|-----------------|-----------------|

1. 2.
 
 -------------------------|

[E] [E] [E] [E] [E] [E] [E] [E] [E] [E] [E] [E] [E] [E] [E] [E]  
 
 |------------------||-------------------|
 |-----------------o||-------------------|
 |------------------||-------5-5-5-5-5---|
 |-5-5-5-5-5-5-5-5--||-5-5-5-5-5-5-5-5---|
 |-3-3-3-3-3-3-3-3-o||-3-3-3-3-3-3-3-3---|
 |------------------||-------------------|

|
| E E E E E E E E E E E E E E E E
 
 |------------------||-------------------|
 |-8-7-----8-7-----o||-8-7-----8-7-------|
 |-----9-7-----9-7--||-----9-7-----9-7---|
 |------------------||-------------------|
 |-----------------o||-------------------|
 |------------------||-------------------|

Interlude
[E5]W +W
 
 ||-------------------|--------------------|
 ||o------------------|--------------------|
 ||-------------------|--------------------|
 ||--2----------------|-(2)----------------|
 ||o-2----------------|-(2)----------------|
 ||--0----------------|-(0)----------------|

|
| PM| PM| PM| PM| PM| PM-
| E E E E E E E E E E E E E E E E
 
 ||-------------------|-12------10-----8---|
 ||o-----8-----10-----|--------------------|
 ||--9-9---9-9----9-9-|-----9-9----9-9---9-|
 ||-------------------|--------------------|
 ||o------------------|--------------------|
 ||-------------------|--------------------|

E E H. [F#5] Q. [G5] Q. [B5]Q
 
 |-------------------|----------------------|
 |-------------------|----------------------|
 |-------------------|----------------------|
 |-2-2---------------|--4-------5------9----|
 |-2-2---------------|--4-------5------9----|
 |-0-0---------------|--2-------3------7----|

|
|---| PM| PM| PM| PM| PM
| E E E E E E E E E E E E E E E E
 
 |-------------------|-12------10------8----|
 |-----8------10-----|----------------------|
 |-9-9----9-9----9-9-|-----9-9-----9-9---9--|
 |-------------------|----------------------|
 |-------------------|----------------------|
 |-------------------|----------------------|

[C5] W +W
 
 |-------------------|---------------------|
 |-------------------|---------------------|
 |-------------------|---------------------|
 |-10----------------|-(10)----------------|
 |-10----------------|-(10)----------------|
 |--8----------------|--(8)----------------|

|
| PM| PM| PM| PM| PM| PM-
| E E E E E E E E E E E E E E E E
 
 |-------------------|--12------10-----8---|
 |------8-----10-----|---------------------|
 |--9-9---9-9----9-9-|------9-9----9-9---9-|
 |-------------------|---------------------|
 |-------------------|---------------------|
 |-------------------|---------------------|

E E H. H H
 
 |---------------------|----------------------||
 |---------------------|---------------------o||
 |---------------------|----------------------||
 |-10-10---------------|-----------10\--------||
 |-10-10---------------|-----------10\-------o||
 |--8--8---------------|------------8\--------||

|
|----| PM| PM| PM| PM-| PM
| E E E E E E E E E E E E E E E E
 
 |---------------------|-12-----10-------8----||
 |-------8------10-----|---------------------o||
 |--9--9----9-9----9-9-|----9-9-----9--9---9--||
 |---------------------|----------------------||
 |---------------------|---------------------o||
 |---------------------|----------------------||

Breakdown
[F5] [E5] [F5] [E5]  
 
 PM-----------------| PM-----------------|

[E] [E] [E] [E] [E] [E] [E] [E] [E] [E] [E] [E] [E] [E] [E] [E]  
 
 ||----------------------------|---------------------------|
 ||o---------------------------|---------------------------|
 ||----------------------------|---------------------------|
 ||--10-9----------------------|-10-9----------------------|
 ||o--8-7----------------------|--8-7----------------------|
 ||-------0---0---0---0---0--0-|------0---0---0---0---0--0-|

|
| ~~~~~~~~~~~ ~~~~~~~~~~~
| E E E E E E Q E E E E E E Q
 
 ||----------------------------|---------------------------|
 ||o---------------------------|---------------------------|
 ||----------------------------|---------------------------|
 ||---------[10]---------------|--------[10]---------------|
 ||o--8s7-8------[8]-[7]-[8]---|--8s7-8------[8]-[7]-------|
 ||----------------------------|---------------------[8]---|

[F5] [E5] [C5] [B5] [C5] [A5B5]  
 
 PM---------------------| PM PM

E E E E E E E E E E E E E E E E 4x
 
 |---------------------------|---------------------||
 |---------------------------|--------------------o||
 |---------------------------|---------------------||
 |-10-9----------------------|---------------------||
 |--8-7----------------------|---10-9---10---7-9--o||
 |------0---0---0---0---0--0-|-0--8-7-0--8-0-5-7---||

|
| ~~~~~~~~~~~
| E E E E E E Q E E E E E E E E 4x
 
 |---------------------------|---------------------||
 |---------------------------|--------------------o||
 |---------------------------|---------------------||
 |--------[10]---------------|---------------------||
 |--8s7-8------[8]-[7]-[8]---|--------------------o||
 |---------------------------|----8-7-0--8-0-5s7---||

F#5 N.C. F#5 N.C. F#5 N.C. F#5 G5 A5 B5
Gtrs I, II
E E E E E E E E E E E E E E E E E E E E E E E E E E E E E E E E 4x
 
 ||------------------|-----------------|-----------------|-------------------||
 ||o-----------------|-----------------|-----------------|------------------o||
 ||------------------|-----------------|-----------------|-------------------||
 ||----------5---4---|---------5---4---|---------5---4---|-------------------||
 ||o-4-4---4---4---4-|-4-4---4---4---4-|-4-4---4---4---4-|---4---5---7---9--o||
 ||--2-2-------------|-2-2-------------|-2-2-------------|---2---3---5---7---||

[F5]Gtr[E5] I[F5] [E5]
 
 PM-----------------| PM-----------------|

[E] [E] [E] [E] [E] [E] [E] [E] [E] [E] [E] [E] [E] [E] [E] [E]  
 
 ||----------------------------|---------------------------|
 ||o---------------------------|---------------------------|
 ||----------------------------|---------------------------|
 ||--10-9----------------------|-10-9----------------------|
 ||o--8-7----------------------|--8-7----------------------|
 ||-------0---0---0---0---0--0-|------0---0---0---0---0--0-|

|
| Gtr II
| ~~~~~~~~~~~ ~~~~~~~~~~~
| E E E E E E Q E E E E E E Q
 
 ||----------------------------|---------------------------|
 ||o---------------------------|---------------------------|
 ||----------------------------|---------------------------|
 ||---------[10]---------------|--------[10]---------------|
 ||o--8s7-8------[8]-[7]-[8]---|--8s7-8------[8]-[7]-------|
 ||----------------------------|---------------------[8]---|

[F5] [E5] [C5] [B5] [C5] [A5B5]  
 
 PM---------------------| PM PM

E E E E E E E E E E E E E E E E 4x
 
 |---------------------------|---------------------||
 |---------------------------|--------------------o||
 |---------------------------|---------------------||
 |-10-9----------------------|---------------------||
 |--8-7----------------------|---10-9---10---7-9--o||
 |------0---0---0---0---0--0-|-0--8-7-0--8-0-5-7---||

|
| ~~~~~~~~~~~
| E E E E E E Q E E E E E E E E 4x
 
 |---------------------------|---------------------||
 |---------------------------|--------------------o||
 |---------------------------|---------------------||
 |--------[10]---------------|---------------------||
 |--8s7-8------[8]-[7]-[8]---|--------------------o||
 |---------------------------|----8-7-0--8-0-5s7---||

F#5 N.C. F#5 N.C. F#5 N.C. F#5 G5 A5 B5
Gtrs I, II
[E] [E] [E] [E] [E] [E] [E] [E] [E] [E] [E] [E] [E] [E] [E] [E] [E] [E] [E] [E] [E] [E] [E] [E] [E] [E] [E] [E] [E] [E] [E] [E]  
 
 ||------------------|-----------------|-----------------|-------------------||
 ||o-----------------|-----------------|-----------------|------------------o||
 ||------------------|-----------------|-----------------|-------------------||
 ||----------5---4---|---------5---4---|---------5---4---|-------------------||
 ||o-4-4---4---4---4-|-4-4---4---4---4-|-4-4---4---4---4-|---4---5---7---9--o||
 ||--2-2-------------|-2-2-------------|-2-2-------------|---2---3---5---7---||

uitar Solo
[E5]Gtrs II, V[C/E]
~~~~~~~~~~~~~~~~~~~~~~~~~~~~~~
W H H
 
 |-------------------|-------------------|
 |-/12---------------|-10----------------|
 |-------------------|----------12-------|
 |-------------------|-------------------|
 |-------------------|-------------------|
 |-------------------|-------------------|

|
| Gtr I
 
 | PM-----------------------------------

| E E E E E E E E E E E E E E E E
 
 |-------------------|-------------------|
 |-------------3-1-0-|-------------3-1-0-|
 |---2-4-0-2---------|--2-4-0-2----------|
 |-----------4-------|-----------4-------|
 |-------------------|-------------------|
 |-------------------|-------------------|

|
| Gtr IV
 
 | PM-----------------------------------

| E E E E E E E E E E E E E E E E
 
 |-------------------|-------------------|
 |-------------------|-------------------|
 |-------------------|-------------------|
 |-------------------|-------------------|
 |---2-2-2-2-2-2-2-2-|--3-3-3-3--3-3-3-3-|
 |---0-0-0-0-0-0-0-0-|--0-0-0-0--0-0-0-0-|

[D5] ~~~~~~~~~~~~~~~~
E. E. E H +W
 
 |----------------------------|-------------------------|
 |----------------------------|-------------------------|
 |-[11]-----------------------|-------------------------|
 |--------12------------------|-------------------------|
 |--------------12-[12]-------|-(12)--------------------|
 |----------------------------|-------------------------|

|
 
 |-------------------------------------------|

| E E E E E E E E E E E E E E S S S S
 
 |----------------------------|-------------------------|
 |----------------------3-1-0-|-------------------------|
 |---2--4-----0--2------------|---2--4-0-2-----2h4p2p0--|
 |-------------------4--------|------------4-x----------|
 |----------------------------|-------------------------|
 |----------------------------|-------------------------|

|
 
 |-------------------------------------------------|

| E E E E E E E E E E E E E E E E
 
 |----------------------------|-------------------------|
 |----------------------------|-------------------------|
 |----------------------------|-------------------------|
 |---7--7-----7--7---7--7-7-7-|---7--7-7-7-7-7-7---7----|
 |---5--5-----5--5---5--5-5-5-|---5--5-5-5-5-5-5---5----|
 |----------------------------|-------------------------|

[ Tab from: bttp://www.guitartabs.cc/tabs/c/cobeed_and_cambria/tbe_end_complete_iii_tbe_end_complete_tab.btml ] 
[E5] ~~~~~~~~~~~~~~~~~~[C/E]~~~~~~~~~~~~~~~~~~~
W H H
 
 |------------------|-------------------|
 |-12---------------|-13-------15-------|
 |------------------|-------------------|
 |------------------|-------------------|
 |------------------|-------------------|
 |------------------|-------------------|

|
 
 | PM-----------------------------------

| E E E E E E E E E E E E E E E E
 
 |------------------|-------------------|
 |------------3-1-0-|-------------3-1-0-|
 |--2-4-0-2---------|--2-4-0-2----------|
 |----------4-------|-----------4-------|
 |------------------|-------------------|
 |------------------|-------------------|

|
 
 | PM-----------------------------------

| E E E E E E E E E E E E E E E E
 
 |------------------|-------------------|
 |------------------|-------------------|
 |------------------|-------------------|
 |------------------|-------------------|
 |--2-2-2-2-2-2-2-2-|--3-3-3-3--3-3-3-3-|
 |--0-0-0-0-0-0-0-0-|--0-0-0-0--0-0-0-0-|

~[D5]~~~
 
 |----3----| |-----3-----|

W Q Q Q Q Q Q
 
 |------------------|-----------------------------------|
 |------------------|------10---12---13---12-----15-----|
 |-14---------------|-12--------------------------------|
 |------------------|-----------------------------------|
 |------------------|-----------------------------------|
 |------------------|-----------------------------------|

|
 
 |--------------------------------------|

| E E E E E E E E E E E E E E S S S S
 
 |------------------|-----------------------------------|
 |------------3-1-0-|-----------------------------------|
 |--2-4-0-2---------|--2-4----0----2---------2h4p===2p0-|
 |----------4-------|-----------------4-x---------------|
 |------------------|-----------------------------------|
 |------------------|-----------------------------------|

|
 
 |--------------------------------------------------|

| E E E E E E E E E E E E E E E E
 
 |------------------|-----------------------------------|
 |------------------|-----------------------------------|
 |------------------|-----------------------------------|
 |--7-7-7-7-7-7-7-7-|--7-7----7----7--7-7----7------7---|
 |--5-5-5-5-5-5-5-5-|--5-5----5----5--5-5----5------5---|
 |------------------|-----------------------------------|

[E5] H Q. S S [C/E] S S S S S S S S E E Q
 
 |-----------------------------|------------------------------------|
 |-15b17-------15b17-----12----|-12h13p12----12h13p12----12h13-12---|
 |--------------------------14-|----------14----------14------------|
 |-----------------------------|------------------------------------|
 |-----------------------------|------------------------------------|
 |-----------------------------|------------------------------------|

|
 
 | PM---------------------------------------------------------------

| E E E E E E E E E E E E E E E E
 
 |-----------------------------|------------------------------------|
 |-------------------3-1--0----|-----------------------------3--1-0-|
 |--2----4-0-2-----------------|--2-----4-----0-----2---------------|
 |--------------4--------------|--------------------------4---------|
 |-----------------------------|------------------------------------|
 |-----------------------------|------------------------------------|

|
 
 | PM---------------------------------------------------------------

| E E E E E E E E E E E E E E E E
 
 |-----------------------------|------------------------------------|
 |-----------------------------|------------------------------------|
 |-----------------------------|------------------------------------|
 |-----------------------------|------------------------------------|
 |--2----2-2-2--2----2-2--2----|--3-----3-----3-----3-----3--3--3-3-|
 |--0----0-0-0--0----0-0--0----|--0-----0-----0-----0-----0--0--0-0-|

[D5] +E Q +E H +E Q +E H
 
 |------15b17r==(15)----------|------15b17r==(15)----------------|
 |-(12)-----------------------|----------------------------------|
 |-------------------16-------|-(16)--------------16-------------|
 |----------------------------|----------------------------------|
 |----------------------------|----------------------------------|
 |----------------------------|----------------------------------|

|
 
 |---------------------------------------------------|

| E E E E E E E E E E E E E E S S S S
 
 |----------------------------|----------------------------------|
 |----------------------3-1-0-|----------------------------------|
 |---2---4----0---2-----------|---2---4----0---2-------2h4p2p0---|
 |--------------------4-------|--------------------4-x-----------|
 |----------------------------|----------------------------------|
 |----------------------------|----------------------------------|

|
 
 |---------------------------------------------------------|

| E E E E E E E E E E E E E E E E
 
 |----------------------------|----------------------------------|
 |----------------------------|----------------------------------|
 |----------------------------|----------------------------------|
 |---7---7----7---7---7-7-7-7-|---7---7----7---7---7-7-7---7-----|
 |---5---5----5---5---5-5-5-5-|---5---5----5---5---5-5-5---5-----|
 |----------------------------|----------------------------------|

[E5] T T T T T
 
 |---3---| |-------------12:6---------------|

[E] [E] [E] [E] [E] [E] [E] [E] [E] [E] [E] [E] [E] [E] [E]  
 
 |-12h15---17-12h15-17-12h15-17-12h15-17-12h15-17-|
 |------------------------------------------------|
 |------------------------------------------------|
 |------------------------------------------------|
 |------------------------------------------------|
 |------------------------------------------------|

|
 
 | PM---------------------------------------------

| E E E E E E E E
 
 |------------------------------------------------|
 |-------------------------------3-----1-----0----|
 |--2----4-----0-----2----------------------------|
 |-------------------------4----------------------|
 |------------------------------------------------|
 |------------------------------------------------|

|
 
 | PM---------------------------------------------

| E E E E E E E E
 
 |------------------------------------------------|
 |------------------------------------------------|
 |------------------------------------------------|
 |------------------------------------------------|
 |--2----2-----2-----2-----2-----2-----2-----2----|
 |--0----0-----0-----0-----0-----0-----0-----0----|

[C/E] T T T T T
 
 |-------------9:8-------------| |-------------9:8-------------|

S S S S S S S S S S S S S S S S S S
 
 |-19-12h15---19-12h==15-19---12h15-19-12h15---19-12h==15-19---12h15-|
 |-------------------------------------------------------------------|
 |-------------------------------------------------------------------|
 |-------------------------------------------------------------------|
 |-------------------------------------------------------------------|
 |-------------------------------------------------------------------|

|
 
 |-----------------------------------------------------------|

| E E E E E E E E
 
 |-------------------------------------------------------------------|
 |-------------------------------------------3-------1-------0-------|
 |--2-------4-------0-------2----------------------------------------|
 |-----------------------------------4-------------------------------|
 |-------------------------------------------------------------------|
 |-------------------------------------------------------------------|

|
 
 |-----------------------------------------------------------|

| E E E E E E E E
 
 |-------------------------------------------------------------------|
 |-------------------------------------------------------------------|
 |-------------------------------------------------------------------|
 |-------------------------------------------------------------------|
 |--3-------3-------3-------3--------3-------3-------3-------3-------|
 |--0-------0-------0-------0--------0-------0-------0-------0-------|

[D5] T T T T T
 
 |-------------9:8-------------| |-------------9:8-------------|

S S S S S S S S S S S S S S S S S S
 
 |-20-12h15---20-12h==15-20---12h15-20-12h15---20-12h==15-20---12h15-|
 |-------------------------------------------------------------------|
 |-------------------------------------------------------------------|
 |-------------------------------------------------------------------|
 |-------------------------------------------------------------------|
 |-------------------------------------------------------------------|

|
 
 | PM----------------------------------------------------------------

| E E E E E E E E
 
 |-------------------------------------------------------------------|
 |-------------------------------------------3-------1-------0-------|
 |--2-------4-------0-------2----------------------------------------|
 |-----------------------------------4-------------------------------|
 |-------------------------------------------------------------------|
 |-------------------------------------------------------------------|

|
 
 | PM----------------------------------------------------------------

| E E E E E E E E
 
 |-------------------------------------------------------------------|
 |-------------------------------------------------------------------|
 |-------------------------------------------------------------------|
 |--7-------7-------7-------7--------7-------7-------7-------7-------|
 |--5-------5-------5-------5--------5-------5-------5-------5-------|
 |-------------------------------------------------------------------|

T T T T T
 
 |-------------9:8-------------| |---------------9:8---------------|

S S S S S S S S S S S S S S S S S S
 
 |-22-12h15---22-12h==15-22---12h15-22-12h15---22-12h==15---22---12h==15----||
 |--------------------------------------------------------------------------||
 |--------------------------------------------------------------------------||
 |--------------------------------------------------------------------------||
 |--------------------------------------------------------------------------||
 |--------------------------------------------------------------------------||

|
 
 |-------------------------------------------|

| E E E E E E S S S S
 
 |--------------------------------------------------------------------------||
 |--------------------------------------------------------------------------||
 |--2-------4-------0-------2------------------------2h===4p===2p===0-------||
 |-----------------------------------4-------x------------------------------||
 |--------------------------------------------------------------------------||
 |--------------------------------------------------------------------------||

|
 
 |-------------------------------------------------------------|

| E E E E E E E E
 
 |--------------------------------------------------------------------------||
 |--------------------------------------------------------------------------||
 |--------------------------------------------------------------------------||
 |--7-------7-------7-------7--------7-------7-------7---------7------------||
 |--5-------5-------5-------5--------5-------5-------5---------5------------||
 |--------------------------------------------------------------------------||

E5 AsusG AsusN.C.
Gtr I
 
 PM-----------------------------------------

[E] [E] [E] [E] [E] [E] [E] [E] [E] [E] [E] [E] [E] [E] [E] [E]  
 
 ||--------------------|------------------------|
 ||o-------------------|------------------------|
 ||--------------------|------------------------|
 ||---9-9-9-9--9-9-9-9-|--9--9--9--9--9--9--9-9-|
 ||o--7-7-7-7--7-7-7-0-|-10-10-10-10-10-10-10-0-|
 ||--------------------|------------------------|

|
| Gtr II
| Q Q Q Q Q Q Q Q
 
 ||--------------------|------------------------|
 ||o-10---8---10---8---|-10-----8----10-----8---|
 ||--------------------|------------------------|
 ||--------------------|------------------------|
 ||o-------------------|------------------------|
 ||--------------------|------------------------|

[AsusF] [A] [D5]  
 
 ------------------------------|

[E] [E] [E] [E] [E] [E] [E] [E] [E] [E] [E] [E] [E] [E] [E] [E]  
 
 |-------------------|---------------------||
 |-------------------|--------------------o||
 |-------------------|---------------------||
 |--9-9-9-9--9-9-9-9-|--7-7-7-7--7-7-7-7---||
 |--8-8-8-8--8-8-8-0-|--8-8-8-8--8-5-5-5--o||
 |-------------------|---------------------||

|
| Q Q Q Q Q Q Q Q
 
 |-------------------|---------------------||
 |-------------------|--------------------o||
 |-10---9---10---9---|-10---9---10---9-----||
 |-------------------|---------------------||
 |-------------------|--------------------o||
 |-------------------|---------------------||

Chorus
[C5] W +W [E5] W +W
 
 ||-------------|---------------|---------------|-------------|
 ||o------------|---------------|---------------|-------------|
 ||-------------|---------------|---------------|-------------|
 ||--10---------|-(10)----------|---2-----------|-(2)---------|
 ||o-10---------|-(10)----------|---2-----------|-(2)---------|
 ||---8---------|--(8)----------|---0-----------|-(0)---------|

|
| H H H H +H H H H
 
 ||-------------|---------------|---------------|-------------|
 ||o-------7----|---8-----10----|-(10)----10----|--8-----7----|
 ||-------------|---------------|---------------|-------------|
 ||-------------|---------------|---------------|-------------|
 ||o------------|---------------|---------------|-------------|
 ||-------------|---------------|---------------|-------------|

[C5] W +W [E5] W [G5]H [B5]H 3x
 
 |-------------|---------------|---------------|------------||
 |-------------|---------------|---------------|-----------o||
 |-------------|---------------|---------------|------------||
 |-10----------|-(10)----------|---2-----------|-5----9-----||
 |-10----------|-(10)----------|---2-----------|-5----9----o||
 |--8----------|--(8)----------|---0-----------|-3----7-----||

|
| +H H H H +H H H H 3x
 
 |-------------|---------------|---------------|------------||
 |-(7)----7----|---8-----10----|-(10)----10----|-8----7----o||
 |-------------|---------------|---------------|------------||
 |-------------|---------------|---------------|------------||
 |-------------|---------------|---------------|-----------o||
 |-------------|---------------|---------------|------------||

Breakdown
[C5]Gtrs I, II
 
 PM------| PM----------

E E S S S S Q S S S S
 
 ||------------------------------------|
 ||o-----------------------------------|
 ||------------------------------------|
 ||--10-10-------------10--------------|
 ||o-10-10-10-10-10-10-10--10-10-10-10-|
 ||---8--8--8--8--8--8--8---8--8--8--8-|
 ----------------------| PM------|

S S S S S S S S Q S S S S
 
 |------------------------------------------|
 |------------------------------------------|
 |------------------------------------------|
 |-------------------------10---------------|
 |-10-10-10-10-10-10-10-10-10--10-10-10-10--|
 |--8--8--8--8--8--8--8--8--8---8--8--8--8--|

[E5]  
 
 PM----| PM----------------------| PM----|

E E S S S S Q S S S S S S S S S S S S Q S S S S 4x
 
 |------------------------|-----------------------------||
 |------------------------|----------------------------o||
 |------------------------|-----------------------------||
 |-2-2---------2----------|-----------------2-----------||
 |-2-2-2-2-2-2-2--2-2-2-2-|-2-2-2-2-2-2-2-2-2--2-2-2-2-o||
 |-0-0-0-0-0-0-0--0-0-0-0-|-0-0-0-0-0-0-0-0-0--0-0-0-0--||

[C5]Gtr I
W +W
 
 ||--------------------|-------------------|
 ||o-------------------|-------------------|
 ||--------------------|-------------------|
 ||--10----------------|-(10)--------------|
 ||o-10----------------|-(10)--------------|
 ||---8----------------|--(8)--------------|

|
| Gtr II
| ~
| E E E E E E E E E E E E E E Q
 
 ||--------------------|-------------------|
 ||o------7---8---10---|---8----7---8-7----|
 ||---9-9---9---9----9-|------9---9-----9--|
 ||--------------------|-------------------|
 ||o-------------------|-------------------|
 ||--------------------|-------------------|

1.,2.
[E5]E E H. W 3x
 
 |-------------------|-------------------||
 |-------------------|------------------o||
 |-------------------|-------------------||
 |-2-2---------------|-------------------||
 |-2-2---------------|------------------o||
 |-0-0---------------|-------------------||

|
| E E E E E E E E E E E E E E E E 3x
 
 |-------------------|-------------------||
 |-----7----8---10---|-8---7---8-7------o||
 |-9-9----9---9----9-|---9---9-----9s7---||
 |-------------------|-------------------||
 |-------------------|------------------o||
 |-------------------|-------------------||

3.
[3/4] E E Q E E Q E E Q H. H.
 
 |-------------|------------|---------|-------||
 |-------------|------------|---------|-------||
 |-------------|------------|---------|-------||
 |-2--2----2-2-|-----2-2----|---------|-------||
 |-2--2----2-2-|-----2-2----|---------|-------||
 |-0--0----0-0-|-----0-0----|---------|-------||

|
| H. H. H. H.
 
 |-------------|------------|---------|-------||
 |-------------|------------|---------|-------||
 |-------------|------------|---------|-------||
 |-------------|------------|---------|-------||
 |-------------|------------|---------|-------||
 |-------------|------------|---------|-------||

Outro
[(G/C)]Gtr VI
Q Q Q Q Q Q Q Q Q Q Q Q
 
 ||--------------|------------|-------------|------------|
 ||o------0------|------0-----|------0------|------0-----|
 ||-----------0--|---------0--|----------0--|---------0--|
 ||--------------|------------|-------------|------------|
 ||o--3----------|--3---------|--3----------|--3---------|
 ||--------------|------------|-------------|------------|

|
| Gtr III
| Q Q Q H. Q Q Q H.
 
 ||--------------|------------|-------------|------------|
 ||o-12----------|-12---------|-12----------|-12---------|
 ||--------------|------------|-------------|------------|
 ||------10--12--|------------|-----10--12--|------------|
 ||o-------------|------------|-------------|------------|
 ||--------------|------------|-------------|------------|

Q Q Q Q Q Q Q Q Q Q Q Q
 
 |-------------|----------|-------------|------------|
 |-------------|-0--------|-------------|-0----------|
 |---------0---|----0-----|---------0---|----0-------|
 |-----0-------|-------0--|-----0-------|-------0----|
 |-3-----------|----------|-3-----------|------------|
 |-------------|----------|-------------|------------|

|
| E E E E E E Q Q Q E E E E E E Q Q Q
 
 |-------0-----|----------|-------0-----|------------|
 |-----8---8---|----------|-----8---8---|------------|
 |-7-9-------9-|-7--7--9--|-7-9-------9-|-7--7--9----|
 |-------------|----------|-------------|------------|
 |-------------|----------|-------------|------------|
 |-------------|----------|-------------|------------|

Q Q Q Q Q Q Q Q Q Q Q Q
 
 |-------------|------------|-------------|------------|
 |------0------|------0-----|------0------|------0-----|
 |----------0--|---------0--|----------0--|---------0--|
 |-------------|------------|-------------|------------|
 |--3----------|--3---------|--3----------|--3---------|
 |-------------|------------|-------------|------------|

|
| Q Q Q H. Q Q Q H.
 
 |-------------|------------|-------------|------------|
 |-12----------|-12---------|-12----------|-12---------|
 |-------------|------------|-------------|------------|
 |-----10--12--|------------|-----10--12--|------------|
 |-------------|------------|-------------|------------|
 |-------------|------------|-------------|------------|

Q Q Q Q Q Q Q Q Q Q Q Q
 
 |-------------|----------|-------------|------------|
 |-------------|-0--------|-------------|-0----------|
 |---------0---|----0-----|---------0---|----0-------|
 |-----0-------|-------0--|-----0-------|-------0----|
 |-3-----------|----------|-3-----------|------------|
 |-------------|----------|-------------|------------|

|
| E E E E E E Q Q Q E E E E E E Q Q Q
 
 |-------0-----|----------|-------0-----|------------|
 |-----8---8---|----------|-----8---8---|------------|
 |-7-9-------9-|-7--7--9--|-7-9-------9-|-7--7--9----|
 |-------------|----------|-------------|------------|
 |-------------|----------|-------------|------------|
 |-------------|----------|-------------|------------|

Q Q Q Q Q Q Q Q Q Q Q Q
 
 |-----------|-----------|-----------|-----------|
 |-----0-----|-----0-----|-----0-----|----0------|
 |--------0--|--------0--|--------0--|--------0--|
 |-----------|-----------|-----------|-----------|
 |-3---------|-3---------|-3---------|-3---------|
 |-----------|-----------|-----------|-----------|

|
| H. H. H. H Q
 
 |-----------|-----------|-----------|-----------|
 |-----------|-----------|-----------|-----------|
 |-4---------|-5---------|-7---------|-9-----12--|
 |-----------|-----------|-----------|-----------|
 |-----------|-----------|-----------|-----------|
 |-----------|-----------|-----------|-----------|

Q Q Q Q Q Q Q Q Q Q Q Q
 
 |-----------|------------|------------|--------------|
 |-----------|--0---------|------------|--0-----------|
 |--------0--|------0-----|---------0--|------0-------|
 |-----0-----|---------0--|------0-----|---------0----|
 |-3---------|------------|--3---------|--------------|
 |-----------|------------|------------|--------------|

|
| H. +H. +H. +H.
 
 |-----------|------------|------------|--------------|
 |-----------|------------|------------|--------------|
 |-----------|------------|------------|--------------|
 |-----------|------------|------------|--------------|
 |-3---------|-(3)--------|-(3)--------|-(3)----------|
 |-----------|------------|------------|--------------|

Q Q Q Q Q Q Q Q Q Q Q Q
 
 |-----------|-----------|-----------|-----------|
 |-----0-----|-----0-----|-----0-----|----0------|
 |--------0--|--------0--|--------0--|--------0--|
 |-----------|-----------|-----------|-----------|
 |-3---------|-3---------|-3---------|-3---------|
 |-----------|-----------|-----------|-----------|

|
| H. H. H. H Q
 
 |-----------|-----------|-----------|-----------|
 |-----------|-----------|-----------|-----------|
 |-4---------|-5---------|-7---------|-9-----12--|
 |-----------|-----------|-----------|-----------|
 |-----------|-----------|-----------|-----------|
 |-----------|-----------|-----------|-----------|

Q Q Q Q Q Q Q Q Q Q Q Q
 
 |-----------|------------|------------|---------------||
 |-----------|--0---------|------------|--0-----------o||
 |--------0--|------0-----|---------0--|------0--------||
 |-----0-----|---------0--|------0-----|---------0-----||
 |-3---------|------------|--3---------|--------------o||
 |-----------|------------|------------|---------------||

|
| H. +H. +H. +H.
 
 |-----------|------------|------------|---------------||
 |-----------|------------|------------|--------------o||
 |-----------|------------|------------|---------------||
 |-----------|------------|------------|

Important: The song above is NOT stored on the Chordie server. The original song is hosted at www.guitartabs.cc. Chordie works as a search engine and provides on-the-fly formatting. Chordie does not index songs against artists'/composers' will. To remove this song please click here.

Text color:
Chord color:
Chord grids: 
Font size:    
Page size: 

A B5 C/E C5 D5 E E5 Em F#5 F5 G5
Rate #1 of 2 versions

Login - add to songbook

SHARE PAGE  



You need to log in to post comments