Guitar Tabs, Chords and Lyrics
Server problems seems to be fixed. Chordie has been experiencing problems with songs disappearing. These issues now seems to be fixed, but still verifying the fix. If you find anything strange, please email admin@chordie.com.


Wake Up  Coheed and Cambria

[B]I'm going to right this p[Ebm7]lain out of your life agai[C#m]n,
[B]I wish that I could stay [Ebm7]but you argue,[C#m]
[B]And more than this I wish[Ebm7] you could have seen my fa[C#m]ce,
[B]In backseats starring out[Ebm7] the window,[C#m]
[B]I'll do anything for you,[Ebm7] [C#m]
[B]Kill anyone for you,[Ebm7] [C#m]
[B]So leave yourself intact,[Ebm7] [C#m]
[B]Cause I will be coming ba[Ebm7]ck,[C#m]
[B]In a phrase to cut theses[Ebm7] lips,[C#m]
I [B]loved you.[Ebm7] [C#m]
CHORUS
[B]The morning will[E] come,
[C#m]In the press of every kiss,
With your [E]head upon my chest,
[B]Where I will an[E]noy you,
[C#m]With every waking breath,
Untill [E]you decide to wake up.
( Tab from: http://www.guitartabs.cc/tabs/c/coheed_and_cambria/wake_up_crd_ver_2.html )
VERSE 2
[B]I've learned through hope[Ebm7] of faith in the curves ar[C#m]ound your face,
[B]That I'm the one you hold[Ebm7] forever,[C#m]
[B]If morning never comes fo[Ebm7]r either one of us,[C#m]
[B]Then this I pray to you w[Ebm7]here ever,[C#m]
[B]I'll do anything for you,[Ebm7] [C#m]
[B]This story is for you,[Ebm7] [C#m]
[B]I'd do anything for you,[Ebm7] [C#m]
[B]Kill anyone for you,[Ebm7] [C#m]
[B]So leave yourself intact,[Ebm7] [C#m]
[B]Cause I won't be coming b[Ebm7]ack,[C#m]
[B]In a phrase to cut theses[Ebm7] lips,[C#m]
[B]I loved you.[Ebm7] [C#m]
CHORUS
[B]The morning will[E] come,
[C#m]In the press of every kiss,
With your [E]head upon my chest,
[B]Where I will a[E]nnoy you,
[C#m]With every waking breath,
Untill [E]you decide to wake up.
Chorus Tablature:
 
 -------------------------------------------------------------------------------

Wake up - Coheed and Cambria
 
 -------------------------------------------------------------------------------

Tabbed by:Paolo Jose R. Martinez
Email:paolo_jumper@yahoo.com / www.chordsoflife.com
Tuning:Standard
VERSE
[B(-4)] [Ebm7] [C#m7]  
 
 e|---2------2-----\-----------------------/--------------------------------------|
 B|----2-------2---\----7--------5---------/----------------------------------------|
 G|------4------4--\-----6---------4----6p4/----------------------------------------|
 D|----------------\------8----------6-----/----------------------------------------|
 A|-2------2-------\--6--------4-----------/----------------------------------------|
 E|----------------\-----------------------/------------------------------------|

[E] 

Important: The song above is NOT stored on the Chordie server. The original song is hosted at www.guitartabs.cc. Chordie works as a search engine and provides on-the-fly formatting. Chordie does not index songs against artists'/composers' will. To remove this song please click here.

Text color:
Chord color:
Chord grids: 
Font size:    
Page size: 

B C#m C#m7 E Ebm7
Rate #1 of 13 versions

Jango Player

Login - add to songbook

SHARE PAGE  



You need to log in to post comments