Guitar Tabs, Chords and Lyrics
Server problems seems to be fixed. Chordie has been experiencing problems with songs disappearing. These issues now seems to be fixed, but still verifying the fix. If you find anything strange, please email admin@chordie.com.


Welcome Home  Coheed and Cambria

intro first time second time
 
 ---------------|----------------|-------------|
 ---------------|----------------|-------------|
 --------7------|----------------|-------------|
 ---9-10---10-9-|7-7-10-9-7------|-4-7-5-4-----|
 -7-------------|-----------10-9-|-5-9-7-5-----|
 -0-------------|----------------|-------------|

intro part II
first time second time
 
 ------------|-----------------|----------------------|
 ------------|-----------------|----------------------|
 ------------|-----------------|----------------------|
 ------------|--------7--------|-12-10-9--------------|
 -7-7-9-10-9-|-7-9-10---10-9-7-|---------12-10-9-10-7-|
 ------------|-----------------|----------------------|

[Em] You could've b[C]een all I wanted
But [D]you weren't honest
Now [Em]get in the ground
You choked off the [C]surest of favors
But if y[D]ou really loved me
You [Em]would've endured my world
Well you're just as [C]I presumed
A wh[D]ore in sheep's clothing
[Em]Fucking up all I do
And if so [C]here we stop
Then n[D]ever again
Will y[Em]ou see this in your life
[F]Hang on to the glory at my right h[Am]and
Here laid to r[C]est is our love ever longed
[F]With truth on the shores of compassion[Am]
You seem to take pr[C]emise to all of these songs
[Em] You stormed off to s[C]car the armada
Like J[D]esus played letter,
I'll d[Em]rill through your hands
The stone for the [C]curse you have blamed me
With lo[D]ve and devotion, I'll d[Em]ie as you sleep
But if you could just w[C]rite me out
To ne[D]verless wonder... [Em]happy will I become
Be true that t[C]his is no option,
So with s[D]in I condemn you
[Em]Demon play, demon out!
[F]Hang on to the glory at my right hand[Am]
Here laid to re[C]st is our love ever longed
[F]With truth on the shores of compassion[Am]
You seem to take pr[C]emise to all of these songs
[F]One last kiss for you
[Am]One more wish to you
[G]Please make up your m[F]ind girl...
I'd do anything for you
[F]One last kiss for you
[Am]One more wish to you
[G]Please make up your mind gi[F]rl...
Before I hope you die
[Em]Oh... oh... oh...
[C]Oh... oh... oh...
[D]Oh... oh... oh...
[Em]Oh... oh... oh...

Important: The song above is NOT stored on the Chordie server. The original song is hosted at www.guitartabs.cc. Chordie works as a search engine and provides on-the-fly formatting. Chordie does not index songs against artists'/composers' will. To remove this song please click here.

Text color:
Chord color:
Chord grids: 
Font size:    
Page size: 

Am C D Em F G
Rate #2 of 10 versions

Jango Player

Login - add to songbook

SHARE PAGE  



You need to log in to post comments