Guitar Tabs, Chords and Lyrics
Update 25:10. 13:00. Site is back up running again. Songbooks are recovered. Woring on getting search back up..


U.F.O.  Coldplay

Copyright 2011 by Universal Music Publishing MGB Ltd. and Opal Ltd.
All Rights for Universal Music Publishing MGB Ltd. in the United States and Canada
Administered by Universal - MGB Songs International Copyright Secured All Rights Reserved
U.F.O.
Words and Music by Guy Berryman, Jon Buckland, Will Champion, Chris Martin, and Brian Eno
Official tab taken directly from Mylo Xyloto tab book (Hal Leonard)
Gtr. 1 tuning (lowest to highest) CGDGBD
bpm=118
Key of G
Gtr. 1 (acous.) fingerstyle
[Em7] [Dadd11/C] [G5]  
 
 |------0------------------|--------------------|----0--------0----|
 |--12------------12-------|--7--7-------7------|------------------|
 |--0---------------------0|-----0---------0-0--|--0--------0---0--|
 |----------12----12-12----|--7-----7----7------|-------0-------0-0|
 |--9----------9--------9--|--5--------5-------0|--0------0-----0--|
 |-------------------------|--------------------|------------------|

[G] [Csus6/9]  
 
 |---0--------0----|----12---------------|-----------------------|
 |----------3------|-12------------------|----10--------10---10--|
 |-0------------0--|--------------------0|-----------------0----0|
 |-0---0----------0|-12----12---12-12----|----10--10----10---10--|
 |-0-----0---------|-0--------0-------0--|-----------------------|
 |-----------------|---------------------|--0--------0-----------|

[G] [D/G] [G/C]  
 
 |---0-----------0----|----------------------|-------------------------|
 |-0---------------0--|----7-------7-----7--0|--12-----------12--------|
 |-0-----------0---0--|----0-------0--0--0---|--0---0--------0---------|
 |--------0--------0-0|--7-----7-------------|--12---------------------|
 |-0--------0------0--|--0-------0-----------|---------12----------12--|
 |--------------------|----------------------|--0---------0------0----0|

[Csus6/9] [C] [D/G]  
 
 |(0)-----------------------|----0-------0---------|-----0-----------------|
 |-10---10---------10---10--|--0-----------0-------|--7---------7----7/(10)|
 |-0-----0----------0---0---|--0--------------0----|---------------0-------|
 |-10---10---10----10---10--|-------0---------0-(7)|--7-----7---7----7-----|
 |--------------------------|--0------0-------0----|--0-------0------0-----|
 |-0-------------0----0----0|----------------------|-----------------------|

[G] [Csus6/9]  
 
 |--------------------------------|-----------------------------|
 |--12--12----------12------12----|-----10---------10------10---|
 |--------------------------------|----------------------------0|
 |--12--12----12----12--12--12--12|-----10---10----10--10--10---|
 |--0------------0----------0-----|-----------------------------|
 |--------------------------------|--0----------0---------------|

[G] [Gmaj9/B] [Cadd9]  
 
 |-----0--------0-----0----|----------------------|--2--2----------2-----2--|
 |-0-------0-------0-------|----7-------7---------|--3--3----------3-----3--|
 |--------------0---------0|----0-------0-----0---|--0--0----0-----0--0--0-0|
 |-------------------------|-7-----7-------7-----7|-------------------------|
 |-0----------0-------0----|-4-------4--------4---|-------------------------|
 |-------------------------|----------------------|--0----------0--------0--|

[Dadd11/C] [G]  
 
 |------0-------------0--------|-----0--------0-----0---|----0-------0-----|
 |------5---------7------------|--0------0-------------0|-0------0------0-0|
 |----------0-----0--------0---|-----------------0------|------------0-----|
 |-/5---5------5--7-----------7|------------------------|------------------|
 |-----------------------------|--0--------0--------0---|-0--------0------0|
 |-(0)---------0--------------0|------------------------|------------------|

[Dadd11/C] [G]  
 
 |----------------------|-----------------------|------0--------0-----0----|
 |----7--------7--------|-7--7--------7-----7---|--0------0---------------0|
 |----0--------0-----0--|-0--0--------0-----0---|------------------0-------|
 |-7------7-------7----7|--------7-------7-----7|--------------------------|
 |-5--------5-----------|-5--------5------------|--0---------0--------0----|
 |----------------------|-----------------------|--------------------------|

[D/G] [Gsus2]  
 
 |-------------------------||-|--------------------7----5|-----------------7----7--|
 |----7---------7------7--0||-|-.------------------------|-------------------------|
 |----0---------0------0---||-|--------7----7------7----7|-----7-----7-----7----7--|
 |-7------7---------7------||-|-.--------------5---5----5|--------------5--5----5--|
 |-0---------0---------0---||-|----0---------------------|--0----------------------|
 |-------------------------||-|--------------------------|-------------------------|

Cadd9 A7(omit 3)
 
 |------------------9---9|--------------------9--9-----|-------------5-----|
 |------------5----------|--------5----5---------------|-------------5-----|
 |--------------7---0---0|----------------7---0--0-----|----------2--2--2--|
 |--------5--------------|-----5-----------------------|--------2----2----2|
 |-----5-----------------|--5-----------------------(0)|-2---2-------2-----|
 |--0---------------0---0|-----------------------------|-------------------|

____________________________
Fsus2 (1. Cadd9
 
 |-------------5------|-------------------|------------------------|-||
 |-------------5------|-------------------|----------3--5---3----.-|-||
 |----------2--2--2--2|--5---5-5---5--5--5|----5--------0---0--0---|-||
 |--------2----2--2--2|--5---5-5---5--5--5|--------5----5---5----.-|-||
 |--2--2-------2------|--5---5-5---5--5--5|--5----------5---5------|-||
 |--------------------|--5---5-5---5--5--5|--0-------0-------------|-||

____________________
(2. Cadd9 G Cadd9
 
 |--------------------|-----0------0--0---0-0|-----0----0---0----0---|
 |---------3--5---3---|-----0------0--0---0-0|-----5----5---5----5---|
 |---5--------0---0--0|-----0------0--0---0-0|-----0----0---0----0---|
 |-------5----5---5---|------------0--0---0-0|-----5----5---5----5---|
 |-5----------5---5---|--0-------0-0--0---0-0|--5---------5-5--5-5--5|
 |-0-------0----------|----------------------|--0---------0----0----0|

[G] [Gmaj9/B] [Csus2]  
 
 |----0-----0-0--0-0|-----0--0----0----7--|------0---0----0---0--|
 |----0-----0-0--0-0|-----7--7----7----7--|------3---3----3---3--|
 |----0-----0-0--0-0|-----0--0----0----0--|------0---0----0-0-0-0|
 |----------0-0--0-0|-----7--7----7-7--7-7|------5---5----5---5--|
 |--0-----0-0-0--0-0|--4--------4---------|---5--------5--5---5--|
 |------------------|---------------------|---0--------0---------|

[Dsus4] [G] [D/G]  
 
 |------0----0----0----0---|----0---0----0-----0---|--0---------0----0---|
 |------3----3----3----3---|----0---0----0-----0---|--7---------7----7---|
 |------0----0----0--0-0--0|----0---0----0--0--0--0|--0--0------0----0--0|
 |------5----5----0----0---|-------------0-----0---|--7------7--7--7-7---|
 |---5---------------------|--0-------0--0-----0---|--0---------0----0---|
 |---0---------0--2----2---|-----------------------|---------------------|

[G] [Cadd9] [G]  
 
 |----0-----0-0---0-0|-----0--0-----0-----0---|----0----0--0---0--0|
 |----0-----0-0---0-0|-----5--5-----5-----5---|----0----0--0---0--0|
 |----0-----0-0---0-0|-----0--0-----0-----0---|----0----0--0---0--0|
 |----------0-0---0-0|-----5--5-----5-----5---|---------0--0---0--0|
 |--0-----0-0-0---0-0|--5--------5--5--5--5--5|-0-----0-0--0---0--0|
 |-------------------|--0--------0-----0-----0|--------------------|

[Gmaj9/B] [Cadd9] [D/G] [D]  
 
 |-----0--0----0-----0--|-----0---0-----0----0---|----4-----4--4----|
 |-----7--7----7-----7--|-----5---5-----5----5---|----3-----3--3----|
 |-----0--0----0-----0--|-----0---0-----0--0-0-0-|-0--2-----2--2----|
 |-----7--7----7--7--7-7|-----5---5-----5----5---|----------0--0----|
 |--4-------4-----------|--5---------5--5----5---|-------0----------|
 |----------------------|--0---------0-----------|----------2--2---2|

G harmonics
 
 |------------|------------|----------|-|-----------------------12|
 |------------|------------|----------|-|--------------------12---|
 |------------|------------|----------|3|-------------------------|
 |------------|------------|----------|4|-------------------------|
 |--0---------|------------|----------|-|-------------------------|
 |------------|------------|----------|-|-------------------------|

w/reverb + variable P.M.
 
 ||-|-------------------12|----------------12|----------------12|----------------7---|
 ||-|-.--12----------12---|-12----------12---|-12----------12---|-12-----------7-----|
 ||-|-------12----12------|----12----12------|----12----12------|----12----12--------|
 ||-|-.--------12---------|-------12---------|-------12---------|-------12-----------|
 ||-|---------------------|------------------|------------------|--------------------|
 ||-|---------------------|------------------|------------------|--------------------|

Repeat to fade
 
 |-----------7|-----------7|-----------7|------------12---|-||
 |-7-------7--|-7-------7--|-7-------7--|-7-------12----.-|-||
 |---7---7----|---7---7----|---7---7----|---7---7---------|-||
 |-----7------|-----7------|-----7------|-----7---------.-|-||
 |------------|------------|------------|-----------------|-||
 |------------|------------|------------|-----------------|-||


Important: The song above is NOT stored on the Chordie server. The original song is hosted at www.guitartabs.cc. Chordie works as a search engine and provides on-the-fly formatting. Chordie does not index songs against artists'/composers' will. To remove this song please click here.

Text color:
Chord color:
Chord grids: 
Font size:    
Page size: 

C Cadd9 Csus2 D D/G Dsus4 Em7 G G/C G5 Gsus2
Rate #1 of 1 versions

Jango Player

Login - add to songbook

SHARE PAGE  




You need to log in to post comments