Guitar Tabs, Chords and Lyrics
Server problems seems to be fixed. Chordie has been experiencing problems with songs disappearing. These issues now seems to be fixed, but still verifying the fix. If you find anything strange, please email admin@chordie.com.


Lethe  Dark Tranquillity

^ ^ ^
H. H. Q. E E E
 
 F#||--17------------|--16------------|--14------14--16--14--|
 C#||--14------------|--14------------|--14------------------|
 G#||--15------------|--15------------|--15------------------|
 D#||----------------|----------------|----------------------|

T T
[E] [E] [E] [E] [E] [E] [E] [E] [E] [E] [E] [E] [E] [E] [E] [E] [E] [E]  
 
 ----------14-------------|---------10--14--10------|----------12--16--12------|
 --14----------14---------|-----10--------------10--|------12--------------10--|
 ------15----------15--0--|--8----------------------|--10----------------------|
 -------------------------|-------------------------|--------------------------|

T
[E] [E] [E] [E] [E] [E] [E] [E] [E] [E] [E] [E] [E] [E] [E] [E] [E] [E]  
 
 -------------14----------|--16----------14----------|---------10--14--10------|
 ---------14------14------|------14----------14------|-----10--------------10--|
 --0--15--------------15--|----------15----------15--|--8----------------------|
 -------------------------|--------------------------|-------------------------|

T
[E] [E] [E] [E] [E] [E] [E] [E] [E] [E] [E] [E] [E] [E] [E] [E] [E] [E]  
 
 ----------12--16--12------|-------------14----------|--16----------14----------|
 ------12--------------12--|---------14------14------|------14----------14------|
 --10----------------------|--0--15--------------15--|----------15----------15--|
 --------------------------|-------------------------|--------------------------|

[E] [E] [E] [E] [E] [E] [E] [E] [E] [E] [E] [E]  
 
 --17----------17--16--14--|--16----------16--14------|
 ------14------------------|------14--------------17--|
 ----------15--------------|----------15--------------|
 --------------------------|--------------------------|

[E] [E] [E] [E] [E] [E] [E] [E] [E] [E] [E] [E] [E] [E] [E] [E] [E] [E]  
 
 --14----------14--16--14--|----------14-------------|--17----------17--16--14--|
 ------14------------------|--14----------14---------|------14------------------|
 ----------15--------------|------15----------15--0--|----------15--------------|
 --------------------------|-------------------------|--------------------------|

[E] [E] [E] [E] [E] [E] [E] [E] [E] [E] [E] [E] [E] [E] [E] [E] [E] [E]  
 
 --16----------16--14------|--14----------14--16--14--|----------14-------------|
 ------14--------------17--|------14------------------|--14----------14---------|
 ----------15--------------|----------15--------------|------15----------15--0--|
 --------------------------|--------------------------|-------------------------|

T T
[E] [E] [E] [E] [E] [E] [E] [E] [E] [E] [E] [E] [E] [E] [E] [E] [E] [E]  
 
 ---------10--14--10------|----------12--16--12------|-------------14----------|
 -----10--------------10--|------12--------------12--|---------14------14------|
 --8----------------------|--10----------------------|--0--15--------------15--|
 -------------------------|--------------------------|-------------------------|

T T
[E] [E] [E] [E] [E] [E] [E] [E] [E] [E] [E] [E] [E] [E] [E] [E] [E] [E]  
 
 --16----------14----------|---------10--14--10------|----------12--16--12------|
 ------14----------14------|-----10--------------10--|------12--------------12--|
 ----------15----------15--|--8----------------------|--10----------------------|
 --------------------------|-------------------------|--------------------------|

[E] [E] [E] [E] [E] [E] [E] [E] [E] [E] [E] [E] [E] [E] [E] [E] [E] [E]  
 
 -------------14----------|--16----------14----------|--17----------17--16--14--|
 ---------14------14------|------14----------14------|------14------------------|
 --0--15--------------15--|----------15----------15--|----------15--------------|
 -------------------------|--------------------------|--------------------------|

[E] [E] [E] [E] [E] [E] [E] [E] [E] [E] [E] [E] [E] [E] [E] [E] [E] [E]  
 
 --16----------16--14------|--14----------14--16--14--|----------14-------------|
 ------14--------------17--|------14------------------|--14----------14---------|
 ----------15--------------|----------15--------------|------15----------15--0--|
 --------------------------|--------------------------|-------------------------|

[E] [E] [E] [E] [E] [E] [E] [E] [E] [E] [E] [E]  
 
 --17----------17--16--14--|--16----------16--14------|
 ------14------------------|------14--------------17--|
 ----------15--------------|----------15--------------|
 --------------------------|--------------------------|

[E] [E] [E] [E] [E] [E] [E] [E] [E] [E] [E] [E] [E] [E] [E] [E] [E] [E]  
 
 --14----------14--16--14--|----------14-------------|--9--------9--------|
 ------14------------------|--14----------14---------|-----7--------7-----|
 ----------15--------------|------15----------15--0--|--------0--------0--|
 --------------------------|-------------------------|--------------------|

[E] [E] [E] [E] [E] [E] [E] [E] [E] [E] [E] [E] [E] [E] [E] [E] [E] [E]  
 
 --9--------9--7--9--|--10--------10--------|--10--------10--9--7--|
 -----7--------------|------7---------7-----|------7---------------|
 --------0-----------|---------0---------0--|---------0------------|
 --------------------|----------------------|----------------------|

[E] [E] [E] [E] [E] [E] [E] [E] [E] [E] [E] [E] [E] [E] [E] [E] [E] [E]  
 
 --9--------9--------|--9--------9--7------|--4--------5--------|
 -----7--------7-----|-----7-----------10--|-----5--------5-----|
 --------0--------0--|--------0------------|--------7--------7--|
 --------------------|---------------------|--------------------|

[E] [E] [E] [E] [E] [E] [E] [E] [E] [E] [E] [E] [E] [E] [E] [E] [E] [E]  
 
 --4--------4-----7--|--9--------9--------|--9--------9--7--9--|
 -----5--------5-----|-----7--------7-----|-----7--------------|
 --------7-----------|--------0--------0--|--------0-----------|
 --------------------|--------------------|--------------------|

[E] [E] [E] [E] [E] [E] [E] [E] [E] [E] [E] [E] [E] [E] [E] [E] [E] [E]  
 
 --10--------10--------|--10--------10--9--7--|--9--------9--------|
 ------7---------7-----|------7---------------|-----7--------7-----|
 ---------0---------0--|---------0------------|--------0--------0--|
 ----------------------|----------------------|--------------------|

|(Band enters)
E E E E E E | E E E E E E E E E E E E
 
 --9--------9--7--5--|--4--------5--------|--4--------4-----7--|
 -----7--------------|-----5--------5-----|-----5--------0-----|
 --------0-----------|--------0--------0--|--------0-----------|
 --------------------|--------------------|--------------------|

Q. E E E Q. E E E E S S E E S S E
 
 ------------------|------------------|----------------------|
 ------------------|------------------|----------------------|
 ------------------|------------------|--0--0-0-0--0--0-0-0--|
 --1------1--1--1--|--3------3--3--3--|----------------------|

E S S E E S S E Q. E E E Q. E E E
 
 ----------------------|------------------|------------------|
 ----------------------|------------------|------------------|
 --0--0-0-0--0--0-0-0--|------------------|------------------|
 ----------------------|--1------1--1--1--|--3------3--3--3--|

E S S E E S S E E S S E E S S E E E E E E E
 
 ----------------------|----------------------|--17----------17--16--14--|
 ----------------------|----------------------|------14------------------|
 --0--0-0-0--0--0-0-0--|--0--0-0-0--0--0-0-0--|----------15--------------|
 ----------------------|----------------------|--------------------------|

[E] [E] [E] [E] [E] [E] [E] [E] [E] [E] [E] [E] [E] [E] [E] [E] [E] [E]  
 
 --16----------16--14------|--14----------14--16--14--|----------14-------------|
 ------14--------------17--|------14------------------|--14----------14---------|
 ----------15--------------|----------15--------------|------15----------15--0--|
 --------------------------|--------------------------|-------------------------|

[E] [E] [E] [E] [E] [E] [E] [E] [E] [E] [E] [E]  
 
 --17----------17--16--14--|--16----------16--14------|
 ------14------------------|------14--------------17--|
 ----------15--------------|----------15--------------|
 --------------------------|--------------------------|

[E] [E] [E] [E] [E] [E] [E] [E] [E] [E] [E] [E] [E] [E] [E] [E] [E] [E]  
 
 --14----------14--16--14--|----------14-------------|--9--------9--------|
 ------14------------------|--14----------14---------|-----7--------7-----|
 ----------15--------------|------15----------15--0--|--------0--------0--|
 --------------------------|-------------------------|--------------------|

[E] [E] [E] [E] [E] [E] [E] [E] [E] [E] [E] [E] [E] [E] [E] [E] [E] [E]  
 
 --9--------9--7--9--|--10--------10--------|--10--------10--9--7--|
 -----7--------------|------7---------7-----|------7---------------|
 --------0-----------|---------0---------0--|---------0------------|
 --------------------|----------------------|----------------------|

[E] [E] [E] [E] [E] [E] [E] [E] [E] [E] [E] [E] [E] [E] [E] [E] [E] [E]  
 
 --9--------9--------|--9--------9--7------|--4--------5--------|
 -----7--------7-----|-----7-----------10--|-----5--------5-----|
 --------0--------0--|--------0------------|--------7--------7--|
 --------------------|---------------------|--------------------|

[E] [E] [E] [E] [E] [E] [E] [E] [E] [E] [E] [E] [E] [E] [E] [E] [E] [E]  
 
 --4--------4-----7--|--9--------9--------|--9--------9--7--9--|
 -----5--------5-----|-----7--------7-----|-----7--------------|
 --------7-----------|--------0--------0--|--------0-----------|
 --------------------|--------------------|--------------------|

[E] [E] [E] [E] [E] [E] [E] [E] [E] [E] [E] [E] [E] [E] [E] [E] [E] [E]  
 
 --10--------10--------|--10--------10--9--7--|--9--------9--------|
 ------7---------7-----|------7---------------|-----7--------7-----|
 ---------0---------0--|---------0------------|--------0--------0--|
 ----------------------|----------------------|--------------------|

[E] [E] [E] [E] [E] [E] [E] [E] [E] [E] [E] [E] [E] [E] [E] [E] [E] [E]  
 
 --9--------9--7------|--4--------5--------|--4--------4-----7--|
 -----7-----------10--|-----5--------5-----|-----5--------5-----|
 --------0------------|--------7--------7--|--------7-----------|
 ---------------------|--------------------|--------------------|

(Breakdown)
Q E Q. Q. Q. Q Q Q Q. E E E
 
 -----------------|-----|----------------|-----------------|------------------|
 -----------------|-----|----------------|-----------------|--2------2--2--2--|
 --0----0---------|-----|--0-------------|--0----0----0----|------------------|
 -----------------|-----|----------------|-----------------|------------------|

E E E E E E Q. Q. Q Q Q Q. E E E
 
 --------------------|----------------|-----------------||-------------------|
 --2--2--2--2--2--2--|--2-------------|-----------------||*------------------|
 --------------------|----------------|-----------------||*--0------0--0--0--|
 --------------------|----------------|--0----0----0----||-------------------|

E E E E E E Q. E E E Q Q Q Q. E E E
 
 --------------------|------------------|-----------------|------------------|
 --------------------|------------------|-----------------|--2------2--2--2--|
 --0--0--0--0--0--0--|--0------0--0--0--|--0----0----0----|------------------|
 --------------------|------------------|-----------------|------------------|

E E E E E E Q. E E E Q Q Q Q E Q.
 
 --------------------|------------------|------------------||------------------|
 --2--2--2--2--2--2--|--2------2--2--2--|-----------------*||*-----------------|
 --------------------|------------------|-----------------*||*--0----0---------|
 --------------------|------------------|--0----0----0-----||------------------|

Q. Q. Q Q Q Q. E E E
 
 -----|----------------|-----------------|------------------|
 -----|----------------|-----------------|--2------2--2--2--|
 -----|--0-------------|--0----0----0----|------------------|
 -----|----------------|-----------------|------------------|

E E E E E E Q. E E E Q Q Q
 
 --------------------|------------------|------------------||
 --2--2--2--2--2--2--|--2------2--2--2--|-----------------*||
 --------------------|------------------|-----------------*||
 --------------------|------------------|--0----0----0-----||

(clean vocals)
[E] [E] [E] [E] [E] [E] [E] [E] [E] [E] [E] [E] [E] [E] [E] [E] [E] [E]  
 
 ---9---------9---------|--9---------9---------|--9--------9--------|
 *-----10--------10-----|-----10--------10-----|-----9--------9-----|
 *---------0---------0--|---------0---------0--|--------7--------7--|
 -----------------------|----------------------|--------------------|

||(harsh vocals)
E E E E E E || E E E E E E E E E E E E
 
 --9--------9---------||---9---------9---------|--9---------9---------|
 -----9--------9-----*||*-----10--------10-----|-----10--------10-----|
 --------7--------7--*||*---------0---------0--|---------0---------0--|
 ---------------------||-----------------------|----------------------|

[E] [E] [E] [E] [E] [E] [E] [E] [E] [E] [E] [E] [E] [E] [E] [E] [E] [E]  
 
 --10----------10----------|--7--------7--9--10---||--9---------9---------|
 ------10----------10------|-----7---------------*||-----10--------10-----|
 ----------12----------12--|--------5------------*||---------0---------0--|
 --------------------------|----------------------||----------------------|

[E] [E] [E] [E] [E] [E] [E] [E] [E] [E] [E] [E] [E] [E] [E] [E] [E] [E]  
 
 --9---------9---------|--9----------9----------|--7-----------------|
 -----10--------10-----|-----10---------10------|-----7--------------|
 ---------0---------0--|---------10---------10--|--------5--2--3--2--|
 ----------------------|------------------------|--------------------|

[E] [E] [E] [E] [E] [E] [E] [E] [E] [E] [E] [E] [E] [E] [E] [E] [E] [E]  
 
 --9---------9---------|--9---------9---------|--9----------9----------|
 -----10--------10-----|-----10--------10-----|-----10---------10------|
 ---------0---------0--|---------0---------0--|---------10---------10--|
 ----------------------|----------------------|------------------------|

|(2nd part)
E E E E E E | Q. E E E Q. E E E
 
 --7-----------------|------------------|------------------|
 -----7--------------|------------------|------------------|
 --------5--2--3--5--|------------------|------------------|
 --------------------|--1------1--1--1--|--3------3--3--3--|

E S S E E S S E E S S E E S S E Q. E E E
 
 ----------------------|----------------------|------------------|
 ----------------------|----------------------|------------------|
 --0--0-0-0--0--0-0-0--|--0--0-0-0--0--0-0-0--|------------------|
 ----------------------|----------------------|--1------1--1--1--|

Q. E E E E S S E E S S E E S S E E S S E
 
 ------------------|----------------------|----------------------|
 ------------------|----------------------|----------------------|
 ------------------|--0--0-0-0--0--0-0-0--|--0--0-0-0--0--0-0-0--|
 --3------3--3--3--|----------------------|----------------------|

[E] [E] [E] [E] [E] [E] [E] [E] [E] [E] [E] [E]  
 
 --17----------17--16--14--|--16----------16--14------|
 ------14------------------|------14--------------17--|
 ----------15--------------|----------15--------------|
 --------------------------|--------------------------|

[E] [E] [E] [E] [E] [E] [E] [E] [E] [E] [E] [E] [E] [E] [E] [E] [E] [E]  
 
 --14----------14--16--14--|----------14-------------|--17----------17--16--14--|
 ------14------------------|--14----------14---------|------14------------------|
 ----------15--------------|------15----------15--0--|----------15--------------|
 --------------------------|-------------------------|--------------------------|

[E] [E] [E] [E] [E] [E] [E] [E] [E] [E] [E] [E] [E] [E] [E] [E] [E] [E]  
 
 --16----------16--14------|--14----------14--16--14--|----------14-------------|
 ------14--------------17--|------14------------------|--14----------14---------|
 ----------15--------------|----------15--------------|------15----------15--0--|
 --------------------------|--------------------------|-------------------------|

[E] [E] [E] [E] [E] [E] [E] [E] [E] [E] [E] [E] [E] [E] [E] [E] [E] [E]  
 
 --9--------9--------|--9--------9--7--9--|--10--------10--------|
 -----7--------7-----|-----7--------------|------7---------7-----|
 --------0--------0--|--------0-----------|---------0---------0--|
 --------------------|--------------------|----------------------|

[E] [E] [E] [E] [E] [E] [E] [E] [E] [E] [E] [E] [E] [E] [E] [E] [E] [E]  
 
 --10--------10--9--7--|--9--------9--------|--9--------9--7------|
 ------7---------------|-----7--------7-----|-----7-----------10--|
 ---------0------------|--------0--------0--|--------0------------|
 ----------------------|--------------------|---------------------|

[E] [E] [E] [E] [E] [E] [E] [E] [E] [E] [E] [E] [E] [E] [E] [E] [E] [E]  
 
 --4--------5--------|--4--------4-----7--|--9--------9--------|
 -----5--------5-----|-----5--------5-----|-----7--------7-----|
 --------7--------7--|--------7-----------|--------0--------0--|
 --------------------|--------------------|--------------------|

[E] [E] [E] [E] [E] [E] [E] [E] [E] [E] [E] [E] [E] [E] [E] [E] [E] [E]  
 
 --9--------9--7--9--|--10--------10--------|--10--------10--9--7--|
 -----7--------------|------7---------7-----|------7---------------|
 --------0-----------|---------0---------0--|---------0------------|
 --------------------|----------------------|----------------------|

[E] [E] [E] [E] [E] [E] [E] [E] [E] [E] [E] [E] [E] [E] [E] [E] [E] [E]  
 
 --9--------9--------|--9--------9--7------|--4--------5--------|
 -----7--------7-----|-----7-----------10--|-----5--------5-----|
 --------0--------0--|--------0------------|--------7--------7--|
 --------------------|---------------------|--------------------|

[E] [E] [E] [E] [E] [E] [E] [E] [E] [E] [E] [E] [E] [E] [E] [E] [E] [E]  
 
 --4--------4-----7--|--9--------9--------|--9--------9--7--9--|
 -----5--------5-----|-----7--------7-----|-----7--------------|
 --------7-----------|--------0--------0--|--------0-----------|
 --------------------|--------------------|--------------------|

[E] [E] [E] [E] [E] [E] [E] [E] [E] [E] [E] [E] [E] [E] [E] [E] [E] [E]  
 
 --10--------10--------|--10--------10--9--7--|--9--------9--------|
 ------7---------7-----|------7---------------|-----7--------7-----|
 ---------0---------0--|---------0------------|--------0--------0--|
 ----------------------|----------------------|--------------------|

[E] [E] [E] [E] [E] [E] [E] [E] [E] [E] [E] [E] [E] [E] [E] [E] [E] [E]  
 
 --9--------9--7------|--4--------5--------|--4--------4-----7--|
 -----7-----------10--|-----5--------5-----|-----5--------5-----|
 --------0------------|--------7--------7--|--------7-----------|
 ---------------------|--------------------|--------------------|

[E] [E] [E] [E] [E] [E] [E] [E] [E] [E] [E] [E] [E] [E] [E] [E] [E] [E]  
 
 --9--------9--------|--9--------9--7--9--|--10--------10--------|
 -----7--------7-----|-----7--------------|------7---------7-----|
 --------0--------0--|--------0-----------|---------0---------0--|
 --------------------|--------------------|----------------------|

[E] [E] [E] [E] [E] [E] [E] [E] [E] [E] [E] [E] [E] [E] [E] [E] [E] [E]  
 
 --10--------10--9--7--|--9--------9--------|--9--------9--7------|
 ------7---------------|-----7--------7-----|-----7-----------10--|
 ---------0------------|--------0--------0--|--------0------------|
 ----------------------|--------------------|---------------------|

E E E E E E E E E E E E H.
 
 --4--------5--------|--4--------4-----7--|---------------||
 -----5--------5-----|-----5--------5-----|--7------------||
 --------7--------7--|--------7-----------|---------------||
 --------------------|--------------------|---------------||

Duration Legend
 
 ---------------

W - whole
H - half
Q - quarter
E - 8th
S - 16th
T - 32nd
X - 64th
. - note dotted
|-n-| - n-tuplets
Tablature Legend
 
 ----------------

^ - brush up

Important: The song above is NOT stored on the Chordie server. The original song is hosted at www.guitartabs.cc. Chordie works as a search engine and provides on-the-fly formatting. Chordie does not index songs against artists'/composers' will. To remove this song please click here.

Text color:
Chord color:
Chord grids: 
Font size:    
Page size: 

E
Rate #4 of 5 versions

Jango Player

Login - add to songbook

SHARE PAGE  




You need to log in to post comments