Guitar Tabs, Chords and Lyrics
Server problems seems to be fixed. Chordie has been experiencing problems with songs disappearing. These issues now seems to be fixed, but still verifying the fix. If you find anything strange, please email admin@chordie.com.


Age Six Racer  Dashboard Confessional

 
 ----------------------

TITLE : Age Six Racer
ALBUM : The Swiss Army Romance
LABEL : Drive-Thru Records
TUNING: Eb Ab Db Gb Bb Eb
TAB BY: anemeros@yahoo.com
 
 +--5------------------------------------------------+
 |----0----------------------------------------------|
 |------6--7--6/2-----2------------------------------|
 |----------------0-----0----------0-----------------|
 |------------------2-----2---0--0-----0/2-----------|
 +--------------------------2--------2-----3---------+ x2

[D] So [A] long sweet [Bm] summer [G]
I [D] stumbled upon you
And [A] gratefully basked in your [Bm] rays [G]
I [D] fell into you
Now youre [A] gracefully falling a[Bm]way [G]
..[D] [A] [Bm] [G]
 
 +--2-----2-----------0-----------0-----5-----3------+ Repeat this riff 3x
 |----3-----3---2---2---2---3-------3-------3-----0--| during next verse
 |------2-----2---2-------2-----4-----4---------0----|
 |--0-------------------------4----------------------|
 |--------------0-----------2-------------2---2------|
 +--------------------------------------3------------+

..[D] [A] [Em] [G]
 
 +--2-----2-----------0-----------0-----5-----3------+ Play this only once
 |----3-----3---2---2---2-----------0-------3-----0--| during the last two
 |------2-----2---2-------2-----0-----0---------0----| lines of next verse
 |--0------------------------------------------------|
 |--------------0-------------2-----------2---2------|
 +--------------------------0-----------3------------+

[ Tab from: bttp://www.guitartabs.cc/tabs/d/dasbboard_confessional/age_six_racer_tab_ver_3.btml ] 
[D] Hey [A] thanks
Thanks for that [Bm] summer [G]
Its [D] cold where youre going
I [A] hope that your hearts always [Bm] warm [G]
I [D] gave you the best
I [A] gave you the best that I [Bm] had [G]
You [D] passed on the letters
And [A] passed on the best that I [Em] had, [G] so...
[D] So [A] long sweet [Bm] summer [G]
I [D] stumbled upon you
And [A] gratefully basked in your [Bm] rays [G]
I [D] fell into you
Now youre [A] gracefully falling a[Bm]way [G]
 
 +--5------------------------------------------------+
 |----0----------------------------------------------|
 |------6--7--6/2-----2------------------------------|
 |----------------0-----0----------0-----------------|
 |------------------2-----2---0--0-----0/2-----------|
 +--------------------------2--------2-----3---------+ 2x

..[A] [F#m] [Bm] [G]
 
 +--------------------+
 |--------------------|
 |--2---------4-------|
 |--2---4-----4----5--|
 |--0---4-----2----5--|
 +------2----------3--+

[A] [F#m] [Bm]-[G] I hate the [A]win[F#m]ter[Bm]-[G]
In Lexing[A]ton[F#m] [Bm]-[G]
I hate the [A]win[F#m]ter[Bm]-[G]
In Lexing[A]ton[F#m] [Bm]-[G]
Lexing[A]ton[F#m] [Bm]-[G]
Lexing[A]ton[F#m] [Bm]-[G]
Lexing[A]ton[F#m] [Bm]-[G] [G]-[G]
 
 +--5------------------------------------------------+
 |----0----------------------------------------------|
 |------6--7--6/2-----2------------------------------|
 |----------------0-----0----------0-----------------|
 |------------------2-----2---0--0-----0/2-----------|
 +--------------------------2--------2-----3---------+ 1x


Important: The song above is NOT stored on the Chordie server. The original song is hosted at www.guitartabs.cc. Chordie works as a search engine and provides on-the-fly formatting. Chordie does not index songs against artists'/composers' will. To remove this song please click here.

Text color:
Chord color:
Chord grids: 
Font size:    
Page size: 

A Bm D Em F#m G
Rate #1 of 7 versions

Jango Player

Login - add to songbook

SHARE PAGE  




You need to log in to post comments