Guitar Tabs, Chords and Lyrics
Major upgrade!! After one year development the new version of Chordie is now online! Please give feedback.


Bits and Pieces   The Dave Clark Five

 
 F|---------------------------|---------------------------|
 C|---------------------------|---------------------------|
 G|---------------------------|---------------------------|
 D|---------------------------|---------------------------|

 


 (drums)


 


 

 
 F|---------------------------|---------------------------|
 C|---------------------------|---------------------------|
 G|---------------------------|---------------------------|
 D|---------------------------|---------------------10\---|

 


 


 Verse:


 

 
 F|---------------------------|---------------------------|
 C|---------------------------|---------------------------|
 G|---------------------------|-------------------------5-|
 D|3------3------0------3-----|3------3------5------3-----|

 


 


 (I'm in pie - ces, bits and pie - ces)


 


 

 
 F|---------------------------|---------------------------|
 C|---------------------------|---------------------------|
 G|---------------------------|-------------------------5-|
 D|3------3------0------3-----|3------3------5------3-----|

 


 Since you left and you said good - bye,


 me


 


 

 
 F|------ ------ ------ ------|------ ------ ------ ------|
 C|---------------------------|---------------------------|
 G|---------------------------|-------------------------5-|
 D|3------3------0------3-----|3------3------5------3-----|

 


 


 (I'm in pie - ces, bits and pie - ces)


 


 

 
 F|------ ------ ------ ------|------ ------ ------ ------|
 C|---------------------------|---------------------------|
 G|---------------------------|-------------------------5-|
 D|3------3------0------3-----|3------3------5------3-----|

 


 All I do is sit and cry,


 


 

 
 F|------ ------ ------ ------|------ ------ ------ ------|
 C|---------------------------|---------------------------|
 G|---------------------------|-------------------------5-|
 D|3------3------0------3-----|3------3------5------3-----|

 


 


 (I'm in pie - ces, bits and pie - ces)


 


 

 
 F|------ ------ ------ ------|------ ------ ------ ------|
 C|---------------------------|---------------------------|
 G|---------------------------|-------------------------5-|
 D|3------3------0------3-----|3------3------5------3-----|

 


 You went away and left me mi - se - ry,


 


 

 
 F|------ ------ ------ ------|------ ------ ------ ------|
 C|---------------------------|---------------------------|
 G|---------------------------|-------------------------5-|
 D|3------3------0------3-----|3------3------5------3-----|

 


 (I'm in pie - ces, bits and pie - ces)[And]


 


 

 
 F|------ ------ ------ ------|------ ------ ------ ------|
 C|---------------------------|---------------------------|
 G|---------------------------|---------------------------|
 D|---------------------------|---------------------------|

 


 that's the way it'll al - ways be.


 


 

 
 F|------ ------ ------ ------|------ ------ ------ ------|
 C|---------------------------|---------------------------|
 G|---------------------------|---------------------------|
 D|---------------------------|---------------------10\---|

 


 


 Verse:


 

 
 F|------ ------ ------ ------|------ ------ ------ ------|
 C|---------------------------|---------------------------|
 G|---------------------------|-------------------------5-|
 D|3------3------0------3-----|3------3------5------3-----|

 


 


 (I'm in pie - ces, bits and pie - ces)


 


 

 
 F|------ ------ ------ ------|------ ------ ------ ------|
 C|---------------------------|---------------------------|
 G|---------------------------|-------------------------5-|
 D|3------3------0------3-----|3------3------5------3-----|

 


 You said loved and always be mine,


 you me, you'd


 


 

 
 F|------ ------ ------ ------|------ ------ ------ ------|
 C|---------------------------|---------------------------|
 G|---------------------------|-------------------------5-|
 D|3------3------0------3-----|3------3------5------3-----|

 


 


 (I'm in pie - ces, bits and pie - ces)


 


 

 
 F|------ ------ ------ ------|------ ------ ------ ------|
 C|---------------------------|---------------------------|
 G|---------------------------|-------------------------5-|
 D|3------3------0------3-----|3------3------5------3-----|

 


 We'd be together till the end of time,


 


 

 
 F|------ ------ ------ ------|------ ------ ------ ------|
 C|---------------------------|---------------------------|
 G|---------------------------|-------------------------5-|
 D|3------3------0------3-----|3------3------5------3-----|

 


 


 (I'm in pie - ces, bits and pie - ces)


 


 

 
 F|------ ------ ------ ------|------ ------ ------ ------|
 C|---------------------------|---------------------------|
 G|---------------------------|-------------------------5-|
 D|3------3------0------3-----|3------3------5------3-----|

 


 Now you say it was just a game,


 


 

 
 F|------ ------ ------ ------|------ ------ ------ ------|
 C|---------------------------|---------------------------|
 G|---------------------------|-------------------------5-|
 D|3------3------0------3-----|3------3------5------3-----|

 


 But


 (I'm in pie - ces, bits and pie - ces)


 


 

 
 F|------ ------ ------ ------|------ ------ ------ ------|
 C|---------------------------|---------------------------|
 G|---------------------------|---------------------------|
 D|---------------------------|---------------------------|

 


 all you're doing is leaving me pain.


 


 

 
 F|------ ------ ------ ------|------ ------ ------ ------|
 C|---------------------------|---------------------------|
 G|---------------------------|--------------0------2-----|
 D|---------------------------|-------3-------------------|

 


 


 Bridge:


 

 
 F|------ ------ ------ ------|------ ------ ------ ------|
 C|---------------------------|---------------------------|
 G|1-/-2--2------2------2-----|2------2------2------2-----|
 D|---------------------------|---------------------------|

 


 Time goes by, it goes so slow,


 (oh, yeah!)


 


 

 
 F|------ ------ ------ ------|------ ------ ------ ------|
 C|1-/-2--2------2------2-----|2------2------2------2-----|
 G|---------------------------|---------------------------|
 D|---------------------------|---------------------------|

 


 it doesn't seem true,


 just


 


 

 
 F|------ ------ ------ ------|------ ------ ------ ------|
 C|---------------------------|---------------------------|
 G|---------------------------|---------------------------|
 D|4-/-5--5------5------5-----|5------5------5------5---/-|

 


 On- ly just a few days a- go,


 


 

 
 F|------ ------ ------ ------|------ ------ ------ ------|
 C|---------------------------|---------------------------|
 G|---------------------------|---------------------------|
 D|10-------------------------|---------------------------|

 


 you said love never make me blue.


 you'd me,


 


 

 
 F|------ ------ ------ ------|------ ------ ------ ------|
 C|---------------------------|---------------------------|
 G|---------------------------|---------------------------|
 D|---------------------------|---------------------10\---|

 


 


 Verse:


 

 
 F|------ ------ ------ ------|------ ------ ------ ------|
 C|---------------------------|---------------------------|
 G|---------------------------|-------------------------5-|
 D|3------3------0------3-----|3------3------5------3-----|

 


 


 (I'm in pie - ces, bits and pie - ces)


 


 

 
 F|------ ------ ------ ------|------ ------ ------ ------|
 C|---------------------------|---------------------------|
 G|---------------------------|-------------------------5-|
 D|3------3------0------3-----|3------3------5------3-----|

 


 Now you've gone, and I'm all a - lone,


 


 

 
 F|------ ------ ------ ------|------ ------ ------ ------|
 C|---------------------------|---------------------------|
 G|---------------------------|-------------------------5-|
 D|3------3------0------3-----|3------3------5------3-----|

 


 (I'm in pie - ces, bits and pie - ces)[And]


 


 

 
 F|------ ------ ------ ------|------ ------ ------ ------|
 C|---------------------------|---------------------------|
 G|---------------------------|-------------------------5-|
 D|3------3------0------3-----|3------3------5------3-----|

 


 you're still up there on your throne,


 way


 


 

 
 F|------ ------ ------ ------|------ ------ ------ ------|
 C|---------------------------|---------------------------|
 G|---------------------------|-------------------------5-|
 D|3------3------0------3-----|3------3------5------3-----|

 


 Woah,


 (I'm in pie - ces, bits and pie - ces)


 


 

 
 F|------ ------ ------ ------|------ ------ ------ ------|
 C|---------------------------|---------------------------|
 G|---------------------------|-------------------------5-|
 D|3------3------0------3-----|3------3------5------3-----|

 


 and nothing seems to e- ver go right,


 


 

 
 F|------ ------ ------ ------|------ ------ ------ ------|
 C|---------------------------|---------------------------|
 G|---------------------------|-------------------------5-|
 D|3------3------0------3-----|3------3------5------3-----|

 


 'Cause


 (I'm in pie - ces, bits and pie - ces)


 


 

 
 F|------ ------ ------ ------|------ ------ ------ ------|
 C|---------------------------|---------------------------|
 G|---------------------------|---------------------------|
 D|---------------------------|---------------------------|

 


 night is day, and day is night.


 


 

 
 F|------ ------ ------ ------|------ ------ ------ ------|
 C|---------------------------|---------------------------|
 G|---------------------------|---------------------------|
 D|---------------------------|---------------------------|
 F|------ ------ ------ ------|------ ------ ------ ------|
 C|---------------------------|---------------------------|
 G|---------------------------|---------------------------|
 D|10\-----------3------------|---------------------------|


Important: The song above is NOT stored on the Chordie server. The original song is hosted at www.guitartabs.cc. Chordie works as a search engine and provides on-the-fly formatting. Chordie does not index songs against artists'/composers' will. To remove this song please click here.

This song is displayed as text-only. Transposing and tuning is only available for chordpro-songs.
Rate #7 of 8 versions

Login - add to songbook

SHARE PAGE  



You need to log in to post comments