Guitar Tabs, Chords and Lyrics
Major upgrade!! After one year development the new version of Chordie is now online! Please give feedback.


She√Ę??s My Machine   David Lee Roth

 
 |---------------------------------------------------|
 |---------------------------------------------------|
 |----------------------7/9-9--7/9-9-----------------|
 |----------------------7/9-9--7/9-9-----------------|
 |----------------------5/7-7--5/7-7-----------------|
 |--x-x-x-x-x-x-x-x-x----------------x-x-x-x-x-x-x-x-| 

 


 


 [(2)] [(1)]  

 
 |-------------------------------------|-------------------|
 |-------------------------------------|-------------------|
 |-7--~~-----------7-5----5~~----------|-------------------|
 |--------------------77~--------------|-7-----------------|
 |--------0000-0000----------0000-0000-|---4--5-67-------0-|
 |-------------------------------------|----------0--323---| 

 


 [(2)] [(1)] [(1)]  

 
 |-----------------------------|-------------------|---------------|
 |-----------------------------|-------------------|---------------|
 |---7----7575---5-7-----------|-7-5----5----------|---------------|
 |-------------7---------------|-----77~-----------|--7------------|
 |-------------------0000-0000-|----------0000-0000|----4-5-67~~~~-|
 |-----------------------------|-------------------|---------------|

 


 


 Verse's


 

 
 |---------------------|------------------|-------------------|
 |---------------------|------------------|-----------------2-|
 |---------------------|-------------5----|-------------0---2-|
 |---------------------|---5-5-5-5-7---7~~|----0----5---5---0-|
 |-0000-0000-0000-0000-|-0----------------|---0----5----5-----|
 |---------------------|------------------|-2----3--------3---|

 


 


 1st time 2nd Time (2)


 

 
 |-------------||---------------||----------------|----------------|
 |-------------||---------------||----------------|----------------|
 |-------------||---------------||-7-~~--7-5---5~-|------------0---|
 |-------------||---------------||----------77----|----0----5--5---|
 |-030-5030-3--||-3-0-3~~5-3----||----------------|---0----5---5---|
 |-------------||-----------55~~||----------------|-2----3-------3-|

 


 


 


 Bridge


 (mute)


 

 
 |5~~x-x-x-x--|-------------|-----------|---------------|
 |5~~x-x-x-x--|-7~~x-x-x-x--|-5~x-x-x-x-|---------------|
 |------------|-7~~x-x-x-x--|-5~x-x-x-x-|-9-7-----------|
 |------------|-------------|-----------|----9-7--------|
 |------------|-------------|-----------|-------10-77~~~|
 |------------|-------------|-----------|---------------| 

 


 Good Lovin on my mind good lovin


 


 


 Chorus


 [(2)] [(1)]  

 
 |-------------------------------------|-------------------|
 |-------------------------------------|-------------------|
 |-7--~~-----------7-5----5~~----------|-------------------|
 |--------------------77~--------------|-7-----------------|
 |--------0000-0000----------0000-0000-|---4--5-67---------|
 |-------------------------------------|----------0--323---| 

 


 


 [End]  

 
 |-------------------|
 |-------------------|
 |-------------------|
 |-5-6-7--7777-7777--| 


Important: The song above is NOT stored on the Chordie server. The original song is hosted at www.guitartabs.cc. Chordie works as a search engine and provides on-the-fly formatting. Chordie does not index songs against artists'/composers' will. To remove this song please click here.

This song is displayed as text-only. Transposing and tuning is only available for chordpro-songs.
Rate #1 of 1 versions

Login - add to songbook

SHARE PAGE  



You need to log in to post comments