Guitar Tabs, Chords and Lyrics
Server problems seems to be fixed. Chordie has been experiencing problems with songs disappearing. These issues now seems to be fixed, but still verifying the fix. If you find anything strange, please email admin@chordie.com.


Yankee Rose  David Lee Roth

NOTE:This song has Triple tracking
David Lee Roth
Yankee Rose
Any Yes i did Copy an Paste It Sry if it messed up.
Gtr I (E A D G B E) - 'Steve Vai - Rhythm / Lead w/dist'
Gtr II (E A D G B E) - 'Steve Vai - Lead w/dist & wah'
Gtr III (E A D G B E) - 'Steve Vai - Rhythm Steel String Acoustic'
Intro
Q=138
[4/4] Gtr I Gtr II
\7 \1/ \0.5/
~~~~~~~~~~~~~~~
W +H +H +W Q E S S +E E Q
 
 |----------|---------------|------------|-----------------------------|
 |-1--------|-(1)----(1)----|-(1)--------|----13-----11-----(11)-------|
 |-0--------|-(0)----(0)----|-(0)--------|-----------------------------|
 |-3--------|-(3)----(3)----|-(3)--------|-----------------------------|
 |-3--------|-(3)----(3)----|-(3)--------|-----------------------------|
 |----------|---------------|------------|-----------------------------|

\1.5______________/[6/4]
Q E S +S +S S S S E E W W
 
 |------------------------------------|----------|------|
 |------13-(13)----(13)-13-11-12-13---|----------|------|
 |------------------------------------|----------|------|
 |------------------------------------|----------|------|
 |------------------------------------|----------|------|
 |------------------------------------|----------|------|

[4/4] /7_________\7 \3.5_________/
~~~~
H A +E +Q. H Q A +E +E
 
 |-----------------------|--------------------------|
 |-----------------------|--------------------------|
 |------12---(12)-(12)---|---------12-----(12)-(12)s|
 |-----------------------|--------------------------|
 |-----------------------|--------------------------|
 |-----------------------|--------------------------|

\3.5________/ \1
E A +E S +E. +Q Q
 
 |----------------------------------|
 |----------------------------------|
 |-21-15-----(15)s20-(20)-(20)s=5---|
 |----------------------------------|
 |----------------------------------|
 |----------------------------------|

\1/ \1/ \1/
|-3-| |-3-|
W Q Q +Q E +Q E
 
 |----------|------------------------------|
 |----------|----19----(19)-18---(18)-16---|
 |----------|------------------------------|
 |----------|------------------------------|
 |----------|------------------------------|
 |----------|------------------------------|

\1/ \1/ \1/ \1/ \1/ \1/
|3-|
Q E +E E E. S +S E S
 
 |--------------------------------------------|
 |-16-15---(15)-13---12-----------------------|
 |------------------------14---(14)-12---11---|
 |--------------------------------------------|
 |--------------------------------------------|
 |--------------------------------------------|

\1/ \2.5___/ \7______
 
 |---3----| |----6----| |---5---|

+E E E S S S S S S S S S S S S S S S +E +E H.
 
 |---------------------------------------------|-------------------|
 |---------------------------------------------|-------------------|
 |-(11)----------------------------------------|------------5------|
 |------14---12s10-9-8-7-7-6-5-4-3-3-2-1-1-0-0-|-(0)----(0)--------|
 |---------------------------------------------|-------------------|
 |---------------------------------------------|-------------------|

/ \7 \4.5____/0_______\7 \6____/ \7
+E E +Q +E +E A +Q +Q +E A +E +Q +Q
 
 |----------------------------------|---------------------------------||
 |----------------------------------|---------------------------------||
 |-(x)-8-(8)--(8)-(x)-12-----(12)---|-(12)--(x)-16---(16)-(16)--(16)--||
 |----------------------------------|---------------------------------||
 |----------------------------------|---------------------------------||
 |----------------------------------|---------------------------------||

Verse 1
Gtr I
 
 PM------| PM

W +Q. E E E E E Q Q Q E E +E Q E +Q. E
 
 ||-----------|-----------------|------------3-|-(3)---------------|
 ||o----------|-----------------|--------------|-----1-------------|
 ||--0--------|-(0)-------------|----0---------|--------0-(0)---/3-|
 ||--0--------|-(0)-------------|-------3------|----------------/3-|
 ||o----------|---------5-------|--------------|-------------------|
 ||--3--------|-(3)---3---0-1-2-|-3--------3---|-------------------|

|-Rhy Fig 1
PM PM PM
E E E E E E E E +E E E E S +S S S E E
 
 |-----------------|--------------------------------|
 |---------------6-|-(6)-6----6-----6-------------3-|
 |-3---3---3---x-5-|-(5)-5pb6-5pb7==5-5r(5)p3---0-0-|
 |-3---3---3---x---|--------------------------5-----|
 |-1-1-1-1-1-1-----|--------------------------------|
 |-----------------|--------------------------------|

end Rhy Fig 1-|
1.
\4.5 \1.5__________/1___________\1.5
 
 |------3------|

+Q H. Q +Q +Q +Q +E +E
 
 |----------------|-----------------------------------------||
 |-(3)------------|----------------------------------------o||
 |-(0)--0---------|-----()-()-()--()--()--||
 |----------------|-----------------------------------------||
 |----------------|----------------------------------------o||
 |----------------|-----------------------------------------||

2.
|--3--|
Q Q S S S S S S S S S
 
 |-----------20p18p15-------------------|
 |-(3)-------------18-15s11----13-11s|
 |-(0)---7---------------------12-------|
 |--------------------------------------|
 |--------------------------------------|
 |--------------------------------------|
 |--3--| |-3-|

S S S S S a +S +E +S S S S S S Q
 
 |---------------------------------------------------------||
 |-10h11p10------------------------------------------------||
 |----------12-10-[12]b15==([12])r([12])-(12)S5p3----------||
 |------------------------------------------------5p3------||
 |----------------------------------------------------5s3--||
 |---------------------------------------------------------||

Pre-Chorus
$
PM PM| PM
Q E E Q E E E E E E E E E E E E E E Q E E E E E E E E E E
 
 |------------------|-----------------|----------------|-----------------------|
 |-----6---6-----/6-|-6-6-6-6-6-6-6-6-|-----6---6--5-6-|-6---6-6---6-6---6-6-6-|
 |-----5---5-----/5-|-5-5-5-5-5-5-5-5-|-----5---5--4-5-|-5---5-5---5-5---5-5-5-|
 |------------------|-----------------|----------------|-----------------------|
 |-/5----5----5\----|-----------------|----------------|-----------------------|
 |------------------|-----------------|-6-6---6--------|-----------------------|

|
| W W W S S E S S E S S E Q
 
 |------------------|-----------------|----------------|-----------------------|
 |------------------|-----------------|----------------|-6s5-6-6s5-6-6s5-6-6---|
 |------------------|-----------------|----------------|-5s4-5-5s4-5-5s4-5-5---|
 |------------------|-----------------|----------------|-----------------------|
 |------------------|-----------------|----------------|-----------------------|
 |------------------|-----------------|----------------|-----------------------|

|-subsitiute on D.S.
PM| PM PM| PM
E E E E Q E E E E E E E E E E E E E E Q E E E Q. Q E E
 
 |------------------|-----------------|----------------|----------------||
 |-----6---6-----/6-|-6-6-6-6-6-6-6-6-|-----6---6--6s5-|-6------3-------||
 |-----5---5-----/5-|-5-5-5-5-5-5-5-5-|-----5---5--5s4-|-5------3-------||
 |------------------|-----------------|----------------|--------3-------||
 |-------5----5\----|-----------------|----------------|----------------||
 |-6-6--------------|-----------------|-6-6---6--------|---1-------1-3--||

Chorus
PM PM
E E E E E +E E E +E E E E +Q Q
 
 ||------------------------------|--------------------------|
 ||o---------11----10-(10)/---18-|-(18)-17-17-17-(17)-------|
 ||----------10----10-(10)/---19-|-(19)-17-17-17-(17)-------|
 ||------------------------------|--------------------------|
 ||o--1--/10----10---------------|--------------------------|
 ||--(3)-------------------------|---------------------18\--|

To Coda
PM| PM PM----|
E E E E Q +Q E A +E +E E E E E E E E Q H
 
 |------------------------|---------------------------||-------------||
 |-------11----10--(10)\--|--------------------------o||-------------||
 |-------10----10--(10)\--|---------------------------||-------------||
 |------------------------|---------------------------||-------------||
 |-10-10----10------------|---3b5==(3)r(3)p1-3-1-----o||-1-----------||
 |------------------------|----------------------3-0--||---3---------||

Verse 2
||--
||o-
||-- Rhy Fig 1
||--
||o-
||--
1.
~~~~~~~~
|--3---|
+E Q. +Q +E A +E +Q +E E E +Q. E
 
 |-------------------22b25==(22)-|-(22)--(22)-22-22-(22)r----------||
 |-(3)---------------------------|--------------------------------o||
 |-(0)---------------------------|--------------------------21\----||
 |-------------------------------|---------------------------------||
 |-------------------------------|--------------------------------o||
 |-----0----(0)--(0)-------------|---------------------------------||

2.
\3.5/ \3.5/
 
 |----5----|

E S S S S S S S S S S S S S E
 
 |------------------------------------------------|
 |-(3)--------------------------------------------|

|-(0)-12p0h12p0h12p0h====10p0h10p0h10p0h10p0h====|
 
 |------------------------------------------------|
 |------------------------------------------------|
 |------------------------------------------------|

\3.5/ \3.5/ \3.5/
~~
 
 |---3---| |---3---| D.S. al Coda

E E E E E E Q. +E
 
 |------------------------------------||
 |------------------------------------||
 |-10p0h====7p0h====5p0h====4----(4)\-||
 |------------------------------------||
 |------------------------------------||
 |------------------------------------||

Bridge - Half Time Feel
&
Gtr II
H H W +E Q. Q E E
 
 |-----------------------||--------------|--------------------|
 |-----------------------||--------------|--------------------|
 |--------------7--------||-5------------|-(5)s7------5---3p2-|
 |--------------7--------||--------------|--------------------|
 |-----------------------||--------------|--------------------|
 |-----------------------||--------------|--------------------|

|
| Gtr I Gtr III
| \1.5________/
| a H +Q. +E Q Q Q. E +E Q E +Q Q
 
 |-----------------------||------------0-|-(0)----------------|
 |-----------------------||----6---------|-----6--------------|
 |-10s====3----(3)---(3)-||-------5------|---------5-(5)------|
 |-10s====3----(3)---(3)-||--------------|----------------0---|
 |--8s====1----(1)---(1)-||--------------|--------------------|
 |-----------------------||-6------------|--------------------|

|-Rhy Fig 2
~~~~~~~~~~~~~~~~~~~~~~~~~
Q +E E +H +H +Q. +E
 
 |-------------------|-----------------------|
 |-------------------|-----------------------|
 |-------------------|-----------------------|
 |-/5--(5)s7-(7)-----|-(7)------(7)----(7)\--|
 |-------------------|-----------------------|
 |-------------------|-----------------------|

|
| Q Q Q. E +E Q E +Q Q
 
 |-----------------0-|-(0)-------------------|
 |------3------------|-----3-----------------|
 |------------2------|--------2-(2)----------|
 |-------------------|---------------0-------|
 |-------------------|-----------------------|
 |--3----------------|-----------------------|

end rhy Fig 2-|
w/Rhy Fig 2
 
 |---3----|

H a +H +Q. +E +Q Q Q
 
 |-----------------------|---------------------------|
 |-------13b15==(13)-----|-(13)----(13)r(13)-11s==10-|
 |-----------------------|---------------------------|
 |-----------------------|---------------------------|
 |-----------------------|---------------------------|
 |-----------------------|---------------------------|

|--3--|
S S S S E E E +Q +S S E H +H
 
 |---------------------------------------|---------------------||
 |-11p10h11p10---------------------------|---------------------||
 |-------------12-10s12-(12)--(12)h15p12s|=10-------(10)\------||
 |---------------------------------------|---------------------||
 |---------------------------------------|---------------------||
 |---------------------------------------|---------------------||

End Half Time Feel
Gtr I
 
 PM------| PM----------| PM------| PM------|

Q E E E E E E +E E E E E E E E Q E E E E E E +E E E E E E Q
 
 |----------------|-------------------|----------------|--------------------|
 |----------------|-------------------|----------------|--------------------|
 |-3------------5-|-(5)---------------|-7--------------|--------------------|
 |-3------------5-|-(5)---------------|-7------------8-|-(8)-----------8\---|
 |-1--1-1-1-1-1-3-|-(3)-3-3-3-3-3-3-3-|-5--5-5-5-5-5-8-|-(8)-----------8\---|
 |----------------|-------------------|--------------6-|-(6)-6-6-6-6-6-6\---|
 PM------| PM PM PM

Q E E E E E E E E E E E E Q E E E E Q E E
 
 |-----------------|----------------------|-------------------|
 |--------------10-|-10---10---10-10-10\--|---6-6---6/-----18-|
 |--------------10-|-10---10---10-10-10\--|---5-5---5/--17-17-|
 |-3------------10-|-10---10---10-10-10\--|-------------------|
 |-3-------------8-|--8-8--8-8--8--8--8\--|-5-----5-----------|
 |-1--1-1-1-1-1----|----------------------|-------------------|

\7____/
+E E +E E +E E Q Wx7 Q +H.
 
 |---------------------------------|------------|-------------||
 |-(18)\-18-(18)\-18-(18)\-18-18\--|------------|-0----(0)----||
 |-(17)\-17-(17)\-17-(17)\-17-17\--|------------|-------------||
 |---------------------------------|------------|-------------||
 |---------------------------------|------------|-------------||
 |---------------------------------|------------|-------------||

Outro
Q E E E E E E +Q E +E E E E E
 
 |----------------|--------------------|
 |-6-5-5\-x-5---5-|-(5)-3-(3)\-x-x-x-x-|
 |-5-5-5\-x-5---5-|-(5)-3-(3)\-x-x-x-x-|
 |-5-5-5\-x-5---5-|-(5)-3-(3)\-x-x-x-x-|
 |----------------|--------------------|
 |----------------|--------------------|

|-Rhy Fig 3
\1.5/
~~~~~~~~~
E E E E E E +E E S S S S E E +Q S S S S
 
 |-----------------------|-------------------------------|
 |-----------------------|----------------------x-x-x-x--|
 |-9s7-7s5-5s7-(7)-------|----------------------x-x-x-x--|
 |-7s5-5s3-3s5-(5)s3h====|=5p3------------------x-x-x-x--|
 |-----------------------|-----5p3s1---------------------|
 |-----------------------|------------[3]-([3])----------|

end Rhy Fig 3-|
w/Rhy Fig 3
Gtr II
~~~~~~~~~~~~~~~
A H +Q. A E
 
 |---------13--------(13)--------------13--|
 |-13b15==(13)-------(13)r-----13b15==(13)-|
 |-----------------------------------------|
 |-----------------------------------------|
 |-----------------------------------------|
 |-----------------------------------------|

\0.5____/
T
+E +S +S +E +E +E E E S S
 
 |-(13)----(13)-(13)-(13)-(13)--------------------|
 |-(13)----(13)-(13)-(13)-(13)r=(13)p10-13h15p13p=|
 |------------------------------------------------|
 |------------------------------------------------|
 |------------------------------------------------|
 |------------------------------------------------|

T T T T T
 
 |------5------| |----6-----| |--3---|

S S S S S T T T T T T T T S S S S S S T T T T S S S
 
 |--------------------------------------------------------------------------|

|-11p10h11h==13h15p13p11p10s8h15p10h15p10p8s6h15p8p6s5h=6h=8h15p8p6p===5s3h|
 
 |--------------------------------------------------------------------------|
 |--------------------------------------------------------------------------|
 |--------------------------------------------------------------------------|
 |--------------------------------------------------------------------------|

\5
T T T T
 
 |------6-------| |-----6-----|

S S S S S S S S S S S S H
 
 |---------------------------------------------------|
 |-15p5p==3------------------------------------------|
 |----------15p5p==3---------------------------------|
 |-------------------15p5p3--------------------------|
 |--------------------------15p=5p3---1--------------|
 |---------------------------------------------------|

\7 \7
~~~~~~ ~~~~~~~~~~~~~~~
Q Q Q. E +Q Q Q. E
 
 |----------------------|-------------------------|
 |----------------------|-------------------------|
 |-15--15----0-------15-|-(15)---15---0--------15-|
 |----------------------|-------------------------|
 |----------------------|-------------------------|
 |----------------------|-------------------------|

|
| Q E E E E E E +E E Q E E Q
 
 |----------------------|-------------------------|
 |--6---5-x-11--10------|------------17s15-15\----|
 |--5---5-x-10--10----5-|--(5)s3--3S=17s15-15\----|
 |--5---5-x-10--10----5-|--(5)s3--3S=17s15-15\----|
 |----------------------|-------------------------|
 |----------------------|-------------------------|

\7 \7 /3_________________________\3______________________|
+Q. E +Q Q +Q +H +Q
 
 |-----------------------------|----------------------------------------------|
 |-----------------------------|----------------------------------------------|
 |-(15)----15-(15)---------|-()-------()------------------()--|
 |-------------------------|-()-------()------------------()--|
 |-----------------------------|----------------------------------------------|
 |-----------------------------|----------------------------------------------|

|
| \1.5/ / \6
| E E E E E E +E E S S S S E A +E +H
 
 |-----------------------------|----------------------------------------------|
 |-----------------------------|----------------------------------------------|
 |---9s7-7s=5---5s7--(7)-------|---------------------[0]-([0])-([0])----------|
 |---7s5-5s=3---3s5--(5)s3h====|====5p==3-------------------------------------|
 |-----------------------------|----------5p3S===1----------------------------|
 |-----------------------------|----------------------------------------------|

Begin Fade
w/Rhy Fig 3 to fade out
/1\ /1\
~~~~~ ~~~~~~~~~~~
[A] [+B] [E] [A] [+E] [+E] [A] [+E] [+B] [E] [E] [E] [+E] 
 
 |--------------------15------------------------------|--------------------------------|
 |-18b20==(18)r----------18b20==(18)r(18)-17b18==(17)-|-(17)r---------17-15h17---(17)--|
 |----------------------------------------------------|--------------------------------|
 |----------------------------------------------------|--------------------------------|
 |----------------------------------------------------|--------------------------------|
 |----------------------------------------------------|--------------------------------|

/1\
A +E E A +E E E. S E S +S
 
 |--------------------------------18--------------------------|
 |-(17)b18==(17)r-15-----------------18-----------------------|
 |-------------------17b18==(17)r---------15-17--15b17==(15)r=|
 |------------------------------------------------------------|
 |------------------------------------------------------------|
 |------------------------------------------------------------|

~~~~
+E S S S S S a +S +E +S S E S S
 
 |------------------------------------------------------------|
 |------------------------------------------------------------|
 |-(15)------------------15b17==(15)-(15)r=(15)p12-15---12-12-|
 |-------17p15------------------------------------------------|
 |-------------16s15p13---------------------------------------|
 |------------------------------------------------------------|

Q E S S S S E E S S S S S S S S E +Q. E
 
 |--------------------------|----------------------------------------|
 |----15-x--x-x-x-15-15-x-x-|--x--x-x-15-15-17-17---(17)-----18b20===|
 |----15-x--x-x-x-15-15-x-x-|--x--x-x-15-15-17-17---(17)-------------|
 |----15-x--x-x-x-15-15-x-x-|--x--x-x-15-15-17-17---(17)-------------|
 |--------------------------|----------------------------------------|
 |--------------------------|----------------------------------------|

[+E] [E] [A] [+E] [E] [A] [+E] [E] [E] [A] [+E]  
 
 |-------18--------------18--------------18-18-----------------|
 |-(18)r----18b20==(18)r----18b20==(18)r--------18b20==(18)r---|
 |-------------------------------------------------------------|
 |-------------------------------------------------------------|
 |-------------------------------------------------------------|
 |-------------------------------------------------------------|

S S A +E S S A +E S S A +E S S A +E
 
 |-18-18----------------18-18---------------18---18--------------18-18----------------*|
 |-------18b20==(18)r---------18b20==(18)r----------18b20==(18)r-------18b20==(18)r---*|
 |------------------------------------------------------------------------------------*|
 |------------------------------------------------------------------------------------*|
 |------------------------------------------------------------------------------------*|
 |------------------------------------------------------------------------------------*|


Important: The song above is NOT stored on the Chordie server. The original song is hosted at www.guitartabs.cc. Chordie works as a search engine and provides on-the-fly formatting. Chordie does not index songs against artists'/composers' will. To remove this song please click here.

Text color:
Chord color:
Chord grids: 
Font size:    
Page size: 

A E
Rate #2 of 2 versions

Jango Player

Login - add to songbook

SHARE PAGE  



You need to log in to post comments