Guitar Tabs, Chords and Lyrics
Server problems seems to be fixed. Chordie has been experiencing problems with songs disappearing. These issues now seems to be fixed, but still verifying the fix. If you find anything strange, please email admin@chordie.com.


Ain't No Way  David Lindley

 
 ---------------------------------------------------------------------------

Ain?t No Way - David Lindley
 
 ---------------------------------------------------------------------------

Tabbed by: maguri
Tuning: Standard
David Lindley
Ain?t No Way (1981)
(Bob 'Frizz' Fuller)
From: "El Rayo X"
 
 ---------------------------------------------------------------------------

INTRO/VERSE CHORUS
[C] [C] [Am] [G] [Dm] 
[1] [+] [2] [+] [3] [+] [4] [+] [1] [+] [2] [+] [3] [+] [4] [+] [1] [+] [2] [+] [3] [+] [4] [+] [1] [+] [2] [+] [3] [+] [4] [+]  
 
 e|0---------------|0---------------||1---------------|1---------------|
 B|1---------------|1-------1---0---||3---------------|3---------------|
 G|0-------0---0---|0-------2---0---||2---------------|2---------------|
 D|2-------0h2-0h2-|2-------2---0---||0------h2-0-----|0------h2-0-----|
 A|3---------------|3-------0-------||------------3-0-|------------3-0-|
 E|----------------|------------3---||----------------|----------------|
 ---------------------------------------------------------------------------

| C | C Am G | C | C Am G |
[C]Sittin' at the laundromat
[C]Trying to keep clean[Am] [G]
[C]Twenty five women ar[C]rive on the scene
[Am]Ain't no [G]way, ba[Dm]by
Ain't no way, ba[C]by
Ain't no [Dm]way, baby
Ain't no way you're gonna get to[(C)] me
| C | C Am G |
[C]Down in the south land
[C]Down among the twisted [Am]vines[G]
You [C]ought to see my baby
[C]Shootin' up the freeway [Am]signs
[G]Ain't no [Dm]way, baby
Ain't no way you get to [C]me
Ain't no [Dm]way, baby
Ain't no way you're gonna get to[(C)] me
| C | C Am G |
| Am G | F |
| C | C Am G |
| C | C Am G |
[C]Goin' to the welfare
[C]Standin' in line[Am] [G]
The [C]woman at the window
She won't [C]give me a dime
[Am]Ain't no [G]way, ba[Dm]by
Ain't no way you get to [C]me
Ain't no way, [G]baby
[Am] [G]Ain't no way you're [F]gonna get to[(C)] me
Ain't no [Dm]way, baby
Ain't no way you get to [C]me
Ain't no way, [G]baby
[Am] [G]Ain't no way you're [F]gonna get to[(C)] me
OUTRO SOLO
| C | C Am G |
| C | C Am G |
| C | C Am G |
| C | C Am G |
(repeat and fade)

Important: The song above is NOT stored on the Chordie server. The original song is hosted at www.guitartabs.cc. Chordie works as a search engine and provides on-the-fly formatting. Chordie does not index songs against artists'/composers' will. To remove this song please click here.

Text color:
Chord color:
Chord grids: 
Font size:    
Page size: 

Am C Dm F G
Rate #1 of 1 versions

Jango Player

Login - add to songbook

SHARE PAGE  




You need to log in to post comments