Guitar Tabs, Chords and Lyrics
Major upgrade!! After one year development the new version of Chordie is now online! Please give feedback.


Summer Skin  Death Cab for Cutie

Capo 5
[Am] [C] [Fsus2]  
[B] [B] [E] [E] [E] [E] [E] [E] [E] [E]  
 
 E||--------------------|-----------------------------|
 B||--1--------1--------|--1--------------------------|
 G||--2--------0--------|--0--------------------------|
 D||--------------------|-----------------3--3--2-----|
 A||--3-----------------|-----------0--3-----------3--|
 E||-----------3--------|--1-----1--------------------|

[E] [E] [E] [E] [E] [E] [E] [E]  
 
 --------------------------||
 --------------------------||
 --------------------------||
 -----------3--2-----------||
 --------0--------0--3--0--||
 --1--1--------------------||

Duration Legend
 
 ---------------

W - whole
H - half
Q - quarter
E - 8th
S - 16th
T - 32nd
X - 64th
. - note dotted
|-n-| - n-tuplets
Tablature Legend
 
 ----------------

L - tied note
x - dead note
g - grace note
(n) - ghost note
> - accentuded note
NH - natural harmonic
AH - artificial harmonic
TH - tapped harmonic
SH - semi harmonic
PH - pitch harmonic
h - hammer on
p - pull off
b - bend
br - bendRelease
pb - preBend
pbr - preBendRelease
brb - bendReleaseBend
\n/ - tremolo bar dip
\n - tremolo bar dive
-/n - tremolo bar Release up
/n\ - tremolo bar inverted dip
/n - tremolo bar return
-\n - tremolo bar Release down
S - shift slide
s - legato slide
/ - slide into from below or out of upwards
\ - slide into from above or out of downwards
~ - vibrato
W - wide vibrato
tr - trill
TP - tremolo picking
T - tapping
S - slap
P - pop
< - fade in
^ - brush up
v - brush down

Important: The song above is NOT stored on the Chordie server. The original song is hosted at www.guitartabs.cc. Chordie works as a search engine and provides on-the-fly formatting. Chordie does not index songs against artists'/composers' will. To remove this song please click here.

Text color:
Chord color:
Chord grids: 
Font size:    
Page size: 

Am B C E Fsus2
Rate #1 of 4 versions

Jango Player

Login - add to songbook

SHARE PAGE  



You need to log in to post comments