Guitar Tabs, Chords and Lyrics
Server problems seems to be fixed. Chordie has been experiencing problems with songs disappearing. These issues now seems to be fixed, but still verifying the fix. If you find anything strange, please email admin@chordie.com.


Names   Decapitated

 
 |----------------------|-----|
 |----------------------|-----|
 |----------------------|-----|
 |--------------3-------|-----|
 |-3--2-----5-2---2-5---|-----|
 |-1----4-1-----------4-|-----|

 


 . . . . . . . . .


 


 [Part 1a (x2)] 


 

 
 |----------------------|--------------------------|
 |----------------------|--------------------------|
 |----------------------|--------------------------|
 |----------------------|--------------------------|
 |-2--------------------|--------------------------|
 |-0-000-6/7-7-7-6-6-6~-|-000000-6/7-7-7/9-9-9\6-6-|

 


 ... ......


 


 [ending 1] 


 

 
 ------------------------|--------------------------|
 ------------------------|--------------------------|
 ------------------------|--------------------------|
 ------------------------|--------------------------|
 ------------------------|--------------------2-----|
 -000000-6/7-7-7/6-6-6~--|-000000111111-4-1-0---4-1-|

 


 ...... ............ . . . . . .


 


 [ending 2] 


 

 
 ------------------------|-------------------------|
 ------------------------|-------------------------|
 ------------------------|-------------------------|
 ------------------------|--------------3----------|
 ------------------------|-3--2-----5-2---2-5------|
 -000000-6/7-7-7/6-6-6~--|-1----4-1-----------4----|

 


 ...... . . . . . . . . .


 


 [Part 2] 


 

 
 |--------------------------------------------------|
 |--------------------------------------------------|
 |--------------------------------------------------|
 |--------------------------------------------------|
 |-2-----6/7-7-7~--------6/7-7-7/9-9-9/10-10-10\6-6-|
 |-0-000----------000000----------------------------|

 


 ... ......


 


 

 
 ------------------|-----------------------------------------------|
 ------------------|-----------------------------------------------|
 ------------------|-----------------------------------------------|
 ------------------|-----------------------------------------------|
 --------6/7-7-7~--|--------6/7-7-7-7-7-7-6-6-6-6-6-6-----6/7-7-7~-|
 -000000-----------|-000000---------7-7-7-6-6-6-6-6-6-0-0----------|

 


 ...... ...... . .


 


 [Outro 1] 


 

 
 |----------------------------------------|
 |----------------------------------------|
 |----------------------------------------|
 |----------------------------------------|
 |--------6/7-7-7/9-9-9/10-10-10/12-12----|
 |-000000------------------------------0--|

 


 ...... .


 


 [Part 3a] 


 

 
 |--------------------------------------------------|
 |--------------------------------------------------|
 |--------------------------------------------------|
 |-8-8-8-8~--------------8-8-8-8-7-7-7-10-10--------|
 |--------------------------------------------------|
 |----------000000000000---------------------000000-|

 


 ............ ......


 


 

 
 ---------------------------|---------------------------------|
 ---------------------------|---------------------------------|
 ---------------------------|---------------------------------|
 -11-11-11-11~--------------|-11-11-11-11-10-10-10-6-6--------|
 ---------------------------|-13-13-13-13-12-12-12-8-8--------|
 --------------000000000000-|--------------------------000000-|

 


 ............ ......


 


 

 
 ----------------------------------------|
 ----------------------------------------|
 ----------------------------------------|
 -8-8-8-8~--------------8-8-8-8-7-7-7----|
 ----------------------------------------|
 ----------000000000000------------------|

 


 ............


 


 [Outro 2] 


 

 
 |-----------------------------|
 |-----------------------------|
 |-----------------------------|
 |-----------------------------|
 |-2=======--------------2-----|
 |-0=======-111111-4-1-0-------|

 


 ...... . . . .


 


 [Part 4 (x4)] 


 

 
 ||------------------------------------------------|-----------------------|
 ||------------------------------------------------|-----------------------|
 ||------------------------------------------------|-----------------------|
 ||------------------------------------------------|-----------------------|
 ||-2---------------2--------------------------2---|-2---------------2-----|
 ||-0--111111-4-1-0---4-1-000000-111110-111110-0---|-0--111111-4-1-0---4-1-|

 


 ...... . . . . . . ...... ...... ...... ...... . . . . . .


 


 [ending 1,3] [ending 2] 


 

 
 --------------------------| --------------------------|
 --------------------------| --------------------------|
 --------------------------| --------------------------|
 ------------------3-------| --------------------------|
 --------2-----5-2---2-5---| --------8-5-7-3-5-2-3-----|
 -000000---4-1-----------4-| -000000---------------5-4-|

 


 ...... . . . . . . . . . ...... . . . . . . . . .


 


 [ending 4] 


 

 
 |---------------------------------|
 |---------------------------------|
 |---------------------------------|
 |---------------------------------|
 |--------------2-5----------2-----|
 |-000000111111-----4-111111-0-----|

 


 ............ . . . ...... .


 


 [Part 5a (x7)] 


 

 
 |--------------------|----------------------|
 |--------------------|----------------------|
 |--------------------|----------------------|
 |--------------------|----------------------|
 |-----------------2--|--------------2--2----|
 |-----------------0--|-111111111111-0--0----|

 


 | . | ............ . . |


 

 
 |--------------------|----------------------|
 |--------------------|----------------------|
 |--------------------|----------------------|
 |--------------------|----------------------|
 |--------------2--2--|--------------2--2----|
 |-111111111111-0--0--|-111111111111-0--0----|

 


 ............ . . ............ . .


 


 [Part 5b (x3)] 


 

 
 |---------------------||----------------------------||
 |---------------------||----------------------------||
 |---------------------||----------------------------||
 |---------------------||----------------------------||
 |--------2-5----------||-2---------------2-----2----||
 |-111111-----4-111111-||-0--111111-4-1-0---4-1-0----||

 


 | ...... . . . ...... || ...... . . . . . . ||


 

 
 |---------------------||----------------------------||
 |---------------------||----------------------------||
 |---------------------||----------------------------||
 |---------------------||----------------------------||
 |--------2-5----------||-2---------------2-----2----||
 |-111111-----4-111111-||-0--111111-4-1-0---4-1-0----||

 


 ...... . . . ...... ...... . . . . . .


 


 [Outro 3] 


 

 
 |-----------------------|--------------------------|------|
 |-----------------------|--------------------------|------|
 |-----------------------|--------------------------|------|
 |-----------------------|------------------3-------|------|
 |-2---------------2-----|--------2-----5-2---2-5---|------|
 |-0--111111-4-1-0---4-1-|-111111---4-1-----------4-|------|

 


 ...... . . . . . . ...... . . . . . . . . .


 


 [Part 1b (x2)] 


 

 
 |----------------------|--------------------------|
 |----------------------|--------------------------|
 |----------------------|--------------------------|
 |----------------------|--------------------------|
 |-2--------------------|--------------------------|
 |-0-000-6/7-7-7-6-6-6~-|-000000-6/7-7-7/9-9-9\6-6-|

 


 | ... | ......


 

 
 |----------------------|--------------------------|
 |----------------------|--------------------------|
 |----------------------|--------------------------|
 |----------------------|--------------------------|
 |-2--------------------|--------------------------|
 |-0-000-6/7-7-7-6-6-6~-|-000000-2/3-3-3/5-5-5\2-2-|

 


 ... ......


 


 [ending 1] 


 

 
 ------------------------|--------------------------|
 ------------------------|--------------------------|
 ------------------------|--------------------------|
 ------------------------|--------------------------|
 ------------------------|--------------------2-----|
 -000000-6/7-7-7/6-6-6~--|-000000111111-4-1-0---4-1-|

 


 ...... | ............ . . . . . . |


 

 
 ------------------------|--------------------------|
 ------------------------|--------------------------|
 ------------------------|--------------------------|
 ------------------------|--------------------------|
 ------------------------|--------------------2-----|
 -000000-6/7-7-7/6-6-6~--|-000000111111-4-1-0---4-1-|

 


 ...... ............ . . . . . .


 


 [ending 2] 


 

 
 ------------------------|-------------------------|
 ------------------------|-------------------------|
 ------------------------|-------------------------|
 ------------------------|--------------3----------|
 ------------------------|-3--2-----5-2---2-5------|
 -000000-6/7-7-7/6-6-6~--|-1----4-1-----------4----|

 


 ...... | . . . . . . . . . |


 

 
 ------------------------|-------------------------|
 ------------------------|-------------------------|
 ------------------------|-------------------------|
 ------------------------|--------------3----------|
 ------------------------|-3--2-----5-2---2-5------|
 -000000-6/7-7-7/6-6-6~--|-1----4-1-----------4----|

 


 ...... . . . . . . . . .


 


 [PART 2] 


 


 [Outro 4] 


 

 
 |------------------------------------------|
 |------------------------------------------|
 |------------------------------------------|
 |------------------------------------------|
 |--------10\9-9-7-7/9-9/10-10/12-12/13-----|
 |-000000-------------------------------0---|

 


 ......


 


 [Part 3b] 


 

 
 |--------------------------------------------------|
 |--------------------------------------------------|
 |--------------------------------------------------|
 |-8-8-8-8~--------------8-8-8-8-7-7-7-10-10--------|
 |--------------------------------------------------|
 |----------000000000000---------------------000000-|

 


 ............ ......


 


 

 
 ---------------------------|---------------------------------|
 ---------------------------|---------------------------------|
 ---------------------------|---------------------------------|
 -11-11-11-11~--------------|-11-11-11-11-10-10-10-6-6--------|
 ---------------------------|-13-13-13-13-12-12-12-8-8--------|
 --------------000000000000-|--------------------------000000-|

 


 ............ ......


 


 

 
 -----------------------------------------|
 -----------------------------------------|
 -----------------------------------------|
 -8-8-8-8~--------------8-8-8-8-7-7-7-----|
 -----------------------------------------|
 ----------000000000000---------------0-0-|

 


 ............


 


 [Outro 5] 


 

 
 |-------------------|------------------|------|
 |-------------------|------------------|------|
 |-------------------|------------------|------|
 |-5--4------3-----4-|---------5-----6--|-2----|
 |-4--3------2-----3-|--6------4-----5--|-2----|
 |-3--2--000-1-000-2-|--4--000-3-000-4--|-0----|

 


 ... ... ... ...


 


 [Riff 5] 


 

 
 ||---------------------------------[x2]-||--------------|--|
 ||--------------------------------------||--------------|--|
 ||-----------------------------4-----5--||--------------|--|
 ||--------5--------5-----------3-----4--||--------5-----|--|
 ||--------4--------4-----------2-----3--||--------4-----|--|
 ||-444333-3-222333-3-333222111---222----||-444333-3-----|--|

 


 ...... ...... ......... ... ......


 


 

 
 --||---------------------------------[x3]-||
 --||--------------------------------------||
 --||-----------------------------4-----5--||
 --||--------5--------5-----------3-----4--||
 --||--------4--------4-----------2-----3--||
 --||-444333-3-222333-3-333222111---222----||

 


 ...... ...... ......... ...


 


 [Outro 6] 


 

 
 |---------------------------------------|
 |---------------------------------------|
 |---------------------------------------|
 |--------5--------5---------------------|
 |--------4--------4--------3----^-------|
 |-444333-3-222333-3-333222-1----2~~-----|

 


 ...... ...... ......


 


 [Part 6] 


 

 
 ||------------------------[x4]-||------------||------------------------[x2]-||
 ||-----------------------------||------------||-----------------------------||
 ||-----------------------------||------------||-----------------------------||
 ||-----------------------------||-5===-4-----||-----------------------------||
 ||---------------444----444----||-2===-2--4--||---------------444----444----||
 ||-666333-666333----333----333-||-2===-2--2--||-666333-666333----333----333-||

 


 ...... ...... ...... ......


 


 

 
 ------------||------------------------[x4]-||------------|-|
 ------------||-----------------------------||------------|-|
 ------------||-----------------------------||------------|-|
 -5===-4-----||-----------------------------||-5===-4-----|-|
 -2===-2--4--||---------------444----444----||-2===-2--4--|-|
 -2===-2--2--||-666333-666333----333----333-||-2===-2--2--|-|

 


 ...... ...... ...... ......


 


 [Outro 7] 


 

 
 |--------------------------------------|
 |--------------------------------------|
 |--------------------------------------|
 |-5===-4===-4===-3==-------------------|
 |-2===-2===-1===-1==-3-4==========....-|
 |-2===-2===-1===-1==-1-2=========....--|

 


 


 [Part 7] 


 

 
 ||-----------------------[x4]-||-------------||-----------------------[x2]-||
 ||----------------------------||-------------||----------------------------||
 ||----------------------------||-------------||----------------------------||
 ||----------------------------||-5--4--4--3--||----------------------------||
 ||-----------------444---444--||-2--2--4--3--||-----------------444---444--||
 ||-6-3-0-3-6-3-0-3----3-----3-||-2--2--2--1--||-6-3-0-3-6-3-0-3----3-----3-||

 


 . . . . . . . . .... ....


 


 

 
 -------------||-----------------------[x4]-||-------------|
 -------------||----------------------------||-------------|
 -------------||----------------------------||-------------|
 -5--4--4--3--||----------------------------||-5--4--4--3--|
 -2--2--4--3--||-----------------444---444--||-2--2--4--3--|
 -2--2--2--1--||-6-3-0-3-6-3-0-3----3-----3-||-2--2--2--1--|

 


 . . . . . . . . .... ....


 


 

 
 -||-----------------------[x2]-||----|
 -||----------------------------||----|
 -||----------------------------||----|
 -||----------------------------||----|
 -||-----------------444---444--||-2--|
 -||-6-3-0-3-6-3-0-3----3-----3-||-0--|

 


 . . . . . . . . .... .... .


 


 [Part 3c] 


 

 
 |--------------------------------------------------|
 |--------------------------------------------------|
 |--------------------------------------------------|
 |-8-8-8-8~--------------8-8-8-8-7-7-7-10-10--------|
 |--------------------------------------------------|
 |----------000000000000---------------------000000-|

 


 | ............ ......


 

 
 |--------------------------------------------------|
 |--------------------------------------------------|
 |--------------------------------------------------|
 |-8-8-8-8~--------------8-8-8-8-7-7-7-10-10--------|
 |--------------------------------------------------|
 |----------000000000000---------------------000000-|

 


 ............ ......


 


 

 
 ---------------------------|---------------------------------|
 ---------------------------|---------------------------------|
 ---------------------------|---------------------------------|
 -11-11-11-11~--------------|-11-11-11-11-10-10-10-6-6--------|
 ---------------------------|-13-13-13-13-12-12-12-8-8--------|
 --------------000000000000-|--------------------------000000-|

 


 ............ | ......


 

 
 ---------------------------|---------------------------------|
 ---------------------------|---------------------------------|
 ---------------------------|---------------------------------|
 -11-11-11-11~--------------|-11-11-11-11-10-10-10-6-6--------|
 ---------------------------|-13-13-13-13-12-12-12-8-8--------|
 --------------000000000000-|--------------------------000000-|

 


 ............ ......


 


 

 
 -------------------------------------------|
 -------------------------------------------|
 -------------------------------------------|
 -8-8-8-8~--------------8-8-8-8-7-7-7-10-10-|
 -------------------------------------------|
 ----------000000000000---------------------|

 


 ............ |


 

 
 -------------------------------------------|
 -------------------------------------------|
 -----------------------6-6-6-6-5-5-5-8--8--|
 -8-8-8-8~----------------------------------|
 -------------------------------------------|
 ----------000000000000---------------------|

 


 ............


 


 

 
 |----------------------------|----------------------|
 |----------------------------|----------------------|
 |----------------------------|----------------------|
 |--------11-11-11-11~--------|----------------------|
 |----------------------------|-888888777777-7--6-5--|
 |-000000--------------000000-|--------------5--4-3--|

 


 | ...... ...... | ............ |


 

 
 |----------------------------|----------------------|
 |----------------------------|----------------------|
 |--------9--9--9--9~---------|----------------------|
 |----------------------------|----------------------|
 |----------------------------|-888888777777-7--6-5--|
 |-000000--------------000000-|--------------5--4-3--|


Important: The song above is NOT stored on the Chordie server. The original song is hosted at www.guitartabs.cc. Chordie works as a search engine and provides on-the-fly formatting. Chordie does not index songs against artists'/composers' will. To remove this song please click here.

This song is displayed as text-only. Transposing and tuning is only available for chordpro-songs.
Rate #1 of 5 versions

Jango Player

Login - add to songbook

SHARE PAGE  




You need to log in to post comments