Guitar Tabs, Chords and Lyrics
Major upgrade!! After one year development the new version of Chordie is now online! Please give feedback.


The Queen’s Approach  The Decemberists

This is the first song I've learned by ear, so I'm sorry for any mistakes.
The tab is basically very simple arpeggios, and is fairly easy to play.
The chords used are:
Dm, F, and G.
( Tab from: http://www.guitartabs.cc/tabs/d/decemberists/the_queens_approach_tab.html )
[Dm] [Dm]  
 
 e --------------1----------------5--1-------------------|
 B --------3----------------3----------------------------|
 G -----------2----------------2-------------------------|
 D -----0----------------0-------------------------------|
 A ------------------------------------------------------|
 D --0----------------0----------------------------------|

[Dm] [F] [G]  
 
 e --------------1----------------------------------------|
 B --------3--------3--------------1-------------3--------|
 G -----------2--------2--------2-----2-------4-----4-----|
 D -----0--------------------3-------------5--------------|
 A -------------------------------------------------------|
 D --0----------------------------------------------------|


Important: The song above is NOT stored on the Chordie server. The original song is hosted at www.guitartabs.cc. Chordie works as a search engine and provides on-the-fly formatting. Chordie does not index songs against artists'/composers' will. To remove this song please click here.

Text color:
Chord color:
Chord grids: 
Font size:    
Page size: 

Dm F G
Rate #1 of 1 versions

Login - add to songbook

SHARE PAGE  




You need to log in to post comments