Guitar Tabs, Chords and Lyrics
Server problems seems to be fixed. Chordie has been experiencing problems with songs disappearing. These issues now seems to be fixed, but still verifying the fix. If you find anything strange, please email admin@chordie.com.


Live a Lie  Default

By default
Tabbed by your mother
Tuning: Normal Tuning (E A D G B E)
Chords:
[Dsus2]xxx23x [Fmaj7]13321x 3[G6]5543x [Bb5]x133xx [D5]000000
[C5]X355xx [A5]x022xx
Intro
[Dsus2] [Fmaj7]*T [Dsus2] [Fmaj7]T[G6]
let ring...............| let ring....|
Rhy.Fig.1 End Rhy.Fig.1
 
 ----------------------------|------------------------|------------------------|--------------------------------|
 ----------------------------|------1-----------------|------------------------|--------------------------------|
 ----2----2-2-2---5-------0--|------2--------2h0-0--0-|--2-----2-2-2--5------0-|------2--2--2--2hs4-4-4-4-4-4-4-|
 ----0----0-0-0---0---3------|------3-----3------3----|--0-----0-0-0--0--3-----|------3--3--3--3hs5-5-5-5-5-5-5-|
 ----0-----------------------|------------------------|------------------------|--------------------------------|
 ----------------------------|--1---------------------|------------------------|--1-----------------------------|

*T= Thumb on 6th string
[Dsus2] [Fmaj7] [Dsus2] [Fmaj7] [G6]  
 
 T-----------------------| T--------------------------|

Rhy.Fig.2 End Rhy.Fig.2
 
 ---0-----------------------|------0------0--0--0---0--|-0-------------------------|-----0-0-0--0---0---0--0--0-|
 ---3-----------------------|------1------1--1--1---1--|-3-------------------------|-----1-1-1--3---3---3--3--3-|
 ---2-----2-2-2--5-------0--|------2------2--2--2---2--|-2-----2--2--2---5------0--|-----2-2-2--4---4---4--4--4-|
 ---0-----0-0-0--0---3------|-3----3------3--3--3---3--|-0-----0--0--0---0--3------|-3---3-3-3--5---5---5--5--5-|
 ---0-----------------------|-3----3------3--3--3---3--|-0-------------------------|-3---3-3-3--5---5---5--5--5-|
 ---------------------------|-1----1------1--1--1---1--|---------------------------|-1---1-1-1--3---3---3--3--3-|

( Tab from: http://www.guitartabs.cc/tabs/d/default/live_a_lie_crd.html )
[Dsus2]I can't seem to find out wha[Fmaj7]t I feel
[Dsus2]Burned out dreams of other[Fmaj7]s which I can[G6] steal
[Dsus2]Take or leave this way I seem to you,[Fmaj7] it eats right through you
[Dsus2]Ripped up parts of things I should do, I'l[Fmaj7]l run around and tell you screamin[G6]g
[G]Oh I live a l[F]ie, oh I live a lie, oh[G] why even try[F] [C]
[G]I've been leaving tho[Am]ughts below [F]
[G]Still I feel I should[Am] know [F]
[Dsus2]Still don't see much of me g[Fmaj7]iving in
[Dsus2]Much too strong to live ou[Fmaj7]tside these s[G6]ins
[Dsus2]Feeling like I'm taken lightly, think you [Fmaj7]see right through me
[Dsus2]Words of those that still despise me, think it's[Fmaj7] eating me you're dreaming [G6]
[G]Oh I live a l[F]ie, oh I live a lie, oh[G] why even try[F] [C]
[G]I've been leaving tho[Am]ughts below [F]
G Am F G..
Still I feel I should know
Bridge
[Bb]When I seem to believe all that I've don[Dm]e wrong
[C]You can take all that's right I will st[Am]ill move on
[Bb]Taken all I can give it seems that I don'[Dm]t belong
[C]Push me further from this[Am] go on
Solo Bb Dm C Am
[G]Oh I live a l[F]ie, oh I live a lie, oh[G] why even try[F] [C]
[G]I've been leaving tho[Am]ughts below [F]
[G]Still I feel I should[Am] know [F]

Important: The song above is NOT stored on the Chordie server. The original song is hosted at www.guitartabs.cc. Chordie works as a search engine and provides on-the-fly formatting. Chordie does not index songs against artists'/composers' will. To remove this song please click here.

Text color:
Chord color:
Chord grids: 
Font size:    
Page size: 

A5 Am Bb Bb5 C C5 D5 Dm Dsus2 F Fmaj7 G G6
Rate #1 of 7 versions

Jango Player

Login - add to songbook

SHARE PAGE  




You need to log in to post comments