Guitar Tabs, Chords and Lyrics
Login is temporarily disabled for some users. Do not panic. Will be back in an hour or two. DO NOT REREGISTER!!


Bell Bottom Blues  Derek and the Dominos

Eric Clapton
Layla and other assorted love songs
Intro:
[N.C.] C E/B Am C/G
v v v v v v v v v v v v v v v v v v
 
 -----------|-------------|-------------|-------------|-------------|
 -----------|----1--------|-------------|-------------|-------------|
 -----------|-------0-----|-------1-----|-------2-----|-------------|
 -------0---|h2--------2--|----2-----2--|----2-----2--|-------2-----|
 -2--h3-----|-------------|-2-----------|-0-----------|----3-----3--|
 -----------|-------------|-------------|-------------|-3-----------|

[Riff 1:] 
[F]v v v v [G]v v v v [F]v v [C] v v [G] v v v v
 
 -------------|--------------|-13----------------10----|---------|
 -------------|--------------|---1311---------------12-|---------|
 -------------|---------4----|---------10b12-----------|---------|
 -------3-----|-------5---5\-|-------------------------|---------|
 ----3-----3--|s5--5---------|-------------------------|---------|
 -1-----------|--------------|-------------------------|---------|

[--3--] 
Verse 1:
Bell Bottom Bl[C]ues, ...[E/B] [Am] [C/G]
F G F C G [Riff 1]
I don't wanna ...
If I could ch[C]oose ...[E/B] [Am] [C/G]
It would be [F]in ...[G]
Chorus:
[ Tab from: bttp://www.guitartabs.cc/tabs/d/derek_and_tbe_dominos/bell_bottom_blues_tab_ver_3.btml ] 
[A]Do you wanna see me c[E/G#]rawl ...[F#m] [D] [E]
[A]Do you wanna hear me [E/G#]beg ...[F#m]
I'd gl[D]adly [E]do it...
([A]I don't want to[Amaj7/C#] fade aw[A7]ay) G[D]ive ...[E]
([A]I don't want to[Amaj7/C#] fade aw[A7]ay) [D]In ...[E]
F C G [Riff 1]
Verse 2:
It's all wrong, but it's ....
[repeat cborus] 
[guitar solo over verse cbords] 
[repeat cborus] 
Verse 3:
Bell Bottom Blues, don't .....
[repeat chorus, repeating last two lines two extra times; end cold
on G of Riff 1]
Here is the solo to Bell Bottom Blues. I have not included any of the
slides because I don't know where they all are. I'm also not sure about
the middle section of this solo because it goes pretty fast, so if
anyone figures it out let me know.
 
 E-------10-12----(17)-15---------------(17)-15--------------------------|
 B-12-13-------13---------(17)-15-13------------(17)-15-13---------------|
 G-----------------------------------14--------------------14-(11)-9-7---|
 D---------------------------------------------------------------------9-|
 A-----------------------------------------------------------------------|
 E-----------------------------------------------------------------------|
 E-----------------------------------------------------17-15-------------|
 B----------------------13----17--17-15----15-------17-------17-15-------|
 G-(9)-7-5---5-7--12-14----14-----------17----17-17-----------------17---|
 D---------7-------------------------------------------------------------|
 A-----------------------------------------------------------------------|
 E-----------------------------------------------------------------------|
 E----------------------------------------|
 B-15-17-15-------15-15-15----------------|
 G----------17-14----------12-------------|
 D----------------------------------------|
 A----------------------------------------|
 E----------------------------------------|


Important: The song above is NOT stored on the Chordie server. The original song is hosted at www.guitartabs.cc. Chordie works as a search engine and provides on-the-fly formatting. Chordie does not index songs against artists'/composers' will. To remove this song please click here.

Text color:
Chord color:
Chord grids: 
Font size:    
Page size: 

A A7 Am Amaj7/C# C C/G D E E/B E/G# F F#m G
Rate #1 of 12 versions

Login - add to songbook

SHARE PAGE  




You need to log in to post comments