Guitar Tabs, Chords and Lyrics
Major upgrade!! After one year development the new version of Chordie is now online! Please give feedback.


A Sight to Behold  Devendra Banhart

Less technical than the live version, more technical than the album version.
Even though I play it like the live Poland version, it's more stuff to tab. Lazy lol
Hold the chords in their regular positions and finger-pick.
Am x4 C x4
 
 e-------------|-------------|
 B-----1----1--|-----1----1--|
 G----2----2---|----0----0---|
 D-------2-----|-------2-----|
 A--0----------|--3----------|
 E-------------|-------------|

G x4 F x4 Asus
 
 e-------------|-------------|-------------|
 B-----1----1--|-----1----1--|-----3----3--|
 G----0----0---|----2----2---|----2----2---|
 D-------0-----|-------3-----|-------2-----|
 A-------------|--3----------|--0----------|
 E--3----------|-------------|-------------|

Play all chords 4x, except G, which plays 4x only in the chorus. "2x" means plays
the G only twice (half of other chords)
Intro:
Am x4 Asus x4 Am x4
 
 e-----------------------------------|
 B-----1----1----3----3-----1----1---|
 G----2----2----2----2-----2----2----|
 D-------2---------2----------2------|
 A--0---------0----------0-----------|
 E-----------------------------------|

Am x4
( Tab from: http://www.guitartabs.cc/tabs/d/devendra_banhart/a_sight_to_behold_tab.html )
It's a [Am]sight to be[C]hold
When you've [Am]got small words to [C]mold
G x2 Am
And you can make 'em your own
Still [F]love it would be much better
[G]Love it would be much better
I'm [Am]told... [G]
It's like [Am]golden [C]corn
And I [Am]love its golden [C]glow
It's the [Am]little head inside your little [C]hole
Gx2 Am
And out spring some sparkling thoughts
Still [F]love it would be much better
[G]Love it would be much better
[F]Love it would be much better
[G]Love it would be much better
I [Am]hold...[G]
It's like [Am]finding [C]home
In an [Am]old folk [C]song
That you've [Am]never ever [C]heard
Still you [Am]know every [C]word
And for [G]sure you can sing[Am] along
But [F]love it would be much better
Yeah [G]love it would be much better
[F]Love it would be much better
Oh [G]love it would be much better
Am G x2 Am
I know.... I know

Important: The song above is NOT stored on the Chordie server. The original song is hosted at www.guitartabs.cc. Chordie works as a search engine and provides on-the-fly formatting. Chordie does not index songs against artists'/composers' will. To remove this song please click here.

Text color:
Chord color:
Chord grids: 
Font size:    
Page size: 

Am C F G
Rate #1 of 6 versions

Login - add to songbook

SHARE PAGE  



You need to log in to post comments