Guitar Tabs, Chords and Lyrics
Update 25:10. 13:00. Site is back up running again. Songbooks are recovered. Woring on getting search back up..


In a Week or Two  Diamond Rio

 
 -------------------------------------------------------------------------------

In A Week or Two Diamond Rio
 
 -------------------------------------------------------------------------------

Tabbed by: www.youtube.com/jayreeves05
Email:jayreeves05@gmail.com
Tuning: Standard
Intro:
First Half
 
 e|-----------2--2-2----------2--2-2----------0---3---------------------------|
 B|-----------3--3-3----------3--3-3------2-----0---3-------------------------|
 G|--------2--2--2-2-------0--0--0-0--------2---------0-----------------------|
 D|-----0-----0--0-0----------0--0-0----2---------------0---------------------|
 A|-------------------0h2-------------0---------------------------------------|
 E|---------------------------------------------------------------------------|

Second Half In a week or two
 
 e|-----------2--2-2----------2--2-2-----------0--0--0-0----------------------|
 B|-----------3--3-3----------3--3-3------2----2--2--2-2----------------------|
 G|--------2--2--2-2-------0--0--0-0--------2--2--2--2-2----------------------|
 D|-----0-----0--0-0----------0--0-0----2------2--2--2-2----------------------|
 A|-------------------0h2-------------0--------0--0--0-0----------------------|
 E|---------------------------------------------------------------------------|

First Verse:
In a[D] week or [G]two
[A] I would have been [D]ready
I would have [G]known what to [A]say
[D] But I missed my [G]chance
[A] When the words I [Bm]love you
[G]Came just a l[A]ittle too [D]late
First Chorus:
In a [G]week or two
( Tab from: http://www.guitartabs.cc/tabs/d/diamond_rio/in_a_week_or_two_tab.html )
I was gonna bring you diamonds
In a [D]week or two
A l[A]ong, long string of pearls and
We would've[D] run down to the [G]river at night
[D] Sailed [Bm]away, just me and [G]you
A(Hold) (Play first part intro only into second verse)
In a week or two
Second Verse:
[D] A little more [G]time
[A] Was all I [D]needed
But somehow [G]Fall became [A]Spring
[D] But put off to[G]day
[A] What you can do tom[Bm]orrow
[G]Sometimes you do[A]n't do a th[D]ing
Second Chorus:
In a [G]week or two
I was gonna bring you diamonds
In a [D]week or two
A l[A]ong, long string of pearls and
We would've[D] run down to the [G]river at night
[D] Sailed a[Bm]way, just me and y[G]ou
In a [A]week or [D]two[D] [D] [D] [D]
Bridge:
These [A]words in my heart never had a [G]chance to be [D]heard
But I'm [G]telling you now for [A]all that it's worth
Last Chorus:
In a [G]week or two
I was gonna bring you diamonds
In a [D]week or two
A [A]long, long string of pearls and
We would've[D] run down to the [G]river at night
[D] Sailed [Bm]away, just me and [G]you
A(Hold) (Play first part intro twice and end on D)
In a week or two

Important: The song above is NOT stored on the Chordie server. The original song is hosted at www.guitartabs.cc. Chordie works as a search engine and provides on-the-fly formatting. Chordie does not index songs against artists'/composers' will. To remove this song please click here.

Text color:
Chord color:
Chord grids: 
Font size:    
Page size: 

A Bm D G
Rate #2 of 5 versions

Login - add to songbook

SHARE PAGE  



You need to log in to post comments