Guitar Tabs, Chords and Lyrics
Major upgrade!! After one year development the new version of Chordie is now online! Please give feedback.


Böser Wolf  Die Toten Hosen

DIE TOTEN HOSEN - Böser Wolf
 
 ------------------------------------------

This is the Unplugged version. For the album version, use Capo 1st fret
or transpose it up 1 step.
Play, comment and rate!
 
 ------------------------------------------

Intro:
[G#] [Cm] [C#] [Cm] [A#m] [D#]  
Verse 1:
Sie malt gern [G#]Bilder von sich [Cm]selbst
und [C#]riesengroßen [G#]Männern in [F#]einer Zwergen[D#]welt.
Sie weiß Ge[G#]schichten, die sie nie er[Cm]zählt,
die [C#]meisten da[G#]von hat sie [F#]selber e[D#]rlebt.
Chorus:
Wie die vom [C#]bösen Wolf, der hin und [Fm]wieder kommt
und [A#m]jedes Mal da[Cm]nach von ihr ver[C#]langt,[D#]
dass sie [C#]niemals ein Sterbens[Fm]wörtchen sagt,
weil er [A#m]sie dafür sonst [Cm]fürchterlich be[C#]straft.[D#]
Verse 2:
Wenn ihre [G#]Mami sie in den [Cm]Arm nimmt,
würde [C#]sie am liebsten [G#]weinen und [F#]alles ge[D#]stehn,
doch sie hat [G#]Angst und sie [Cm]schämt sich.
Sie [C#]weiß keinen [G#]Rat und ver[F#]sucht wegzu[D#]sehn.
Chorus:
Wenn der [C#]böse Wolf hin und [Fm]wieder kommt
und [A#m]jedes Mal da[Cm]nach von ihr ver[C#]langt,[D#]
dass sie [C#]niemals ein Sterbens[Fm]wörtchen sagt,
weil er [A#m]sie dafür sonst [Cm]fürchterlich be[C#]straft.[D#]
Solo:
A#m Fm A#m Fm C# Cm D# (2x)
Verse 3:
Sie ist so [G#]scheu wie ein [Cm]Reh,
man [C#]nimmt sie kaum [G#]wahr, denn sie [F#]redet nicht [D#]viel.
Sie bleibt am [G#]liebsten für sich al[Cm]lein,
[C#]betet zu [G#]Gott und [F#]wünscht sich da[D#]bei,
Chorus:
dass der [C#]böse Wolf niemals [Fm]wieder kommt
und mit [A#m]festem Griff um [Cm]ihren Hals ver[C#]langt,[D#]
dass sie [C#]keinem ein Sterbens[Fm]wörtchen sagt,
weil er [A#m]sie dafür sonst [Cm]fürchterlich be[C#]straft,[D#]
dass sie [C#]keinem ein Sterbens[Fm]wörtchen sagt,
weil er [A#m]sie dafür sonst [Cm]fürchterlich be[C#]straft.[D#] [G#]
Solo:
 
 E|---------------6-----------------------------------------------------|
 B|-6---6------6-----6s9-9-6----(6)-6--9-6s4-8----8---------------------|
 G|-------5--------------------------------------------8-----8----8-----|
 D|-------------------------------------------------/8-----8----6----5--|
 A|---------------------------------------------------------------------|
 E|---------------------------------------------------------------------|
 E|---------------6-----------------------------------------------------|
 B|-6---6------6-----6s9-9-6----(6)-6--9-6s4-8----8--8s11---------------|
 G|-------5--------------------------------------------------8----8-----|
 D|--------------------------------------------------------8----6----5--|
 A|---------------------------------------------------------------------|
 E|---------------------------------------------------------------------|


Important: The song above is NOT stored on the Chordie server. The original song is hosted at www.guitartabs.cc. Chordie works as a search engine and provides on-the-fly formatting. Chordie does not index songs against artists'/composers' will. To remove this song please click here.

Text color:
Chord color:
Chord grids: 
Font size:    
Page size: 

A#m C# Cm D# F# Fm G#
Rate #2 of 9 versions

Jango Player

Login - add to songbook

SHARE PAGE  




You need to log in to post comments