Guitar Tabs, Chords and Lyrics
Major upgrade!! After one year development the new version of Chordie is now online! Please give feedback.


Fade Away   Diecast

 
 D|----------------------------------------------------------------|
 A|----------------------------------------------------------------|
 F|----------------------------------------------------------------| X8
 C|------7-----7h8---7---5---7-8-7-5-7-----7---7h8---8-8---5-5-----|
 G|------5-----5-----5---5---5-5-5-5-5-----5---5-----5-5---5-5-----|
 C|--000-----00---00-------0-----------000--00----0------0---------|

 


 ... .. .. . ... .. . .


 


 Guitar 2 (after guitar 1 plays first time)


 

 
 D|------------------------------------------------------------------------|
 A|------------------------------------------------------------------------|
 F|------------------------------------------------------------------------|
 C|------------------------------------------8-8-8-8--7-7-7----------------|
 G|------------------------------------------5-5-5-5--5-5-5----------------|
 C|--00000---0000000----------00000---00000--------------------------------|

 


 ..... ....... ..... .....


 Guitar 2 cont.


 

 
 D|------------------------------------------------------------------------|
 A|------------------------------------------------------------------------|
 F|------10----10/12---10--9---10/12\10\9/10----10--10/12---10/12--12-1414-|
 C|------x-----x--x----x---x---x--x--x--x-x-----x---x--x----x--x---x--x-x--|
 G|------8-----8/-10---8---7---8--10-8--7-8-----8---8--10---8--10--10-1212-|
 C|--000----00------00---0---0---------------000--00------0-------0--------|

 


 


 Guitar 2 cont.


 

 
 D|-------------------------------------------------------------------------|
 A|-------------------------------------------------------------------------|
 F|-----14----14/15---14--12---14/15\14\12/14----14--14/15---14/15--15-1616-|
 C|-----x-----x--x----x---x----x--x--x--x--x-----x---x--x----x--x---x--x-x--|
 G|-----12----12/13---12--10---12/13\12\10/12----12--12/13---12/13--13-1414-|

 


 


 Guitar 2 Intro Solo ( with WAH)


 

 
 D|---------------------------------10-8-----------|
 A|----------------------8-11-10-11------11-10-----|
 F|----3p2p0h2--7-7-9-10---------------------------|
 C|--0---------------------------------------------|
 G|------------------------------------------------|
 C|------------------------------------------------|

 


 [+] [--++-+]  


 

 
 D|-17p13--17p13--17p13--17p13--15p12--15p12--15p12--15p12---|
 A|------15-----15-----15-----15-----13-----13-----13-----13-|
 F|----------------------------------------------------------|
 C|----------------------------------------------------------|
 G|----------------------------------------------------------|
 C|----------------------------------------------------------|
 D|--15-14-12-14-12-10-12-10-8-10-8----10--------------------|
 A|---------------------------------10-----------------------|
 F|----------------------------------------------------------|
 C|----------------------------------------------------------|
 G|----------------------------------------------------------|
 C|----------------------------------------------------------|

 


 


 Verse 1a:


 


 Guitar 1 and 2


 

 
 D|-----------------------------------------------------------------|
 A|-----------------------------------------------------------------|
 F|-----------------------------------------------------------------|
 C|-----7---7h8---8---5---7-8-7-5-7-----7---7h8---8-8---5-5---------|
 G|-----5---5-----5---5---5-5-5-5-5-----5---5-----5-5---5-5---------|
 C|-0-0---0-----0---0---0-----------0-0---0-----0-----0-------------|

 


 . . . . . . . . . . .


 Verse 1a cont.


 

 
 D|--------------------------------------------------------------|
 A|--------------------------------------------------------------|
 F|--------------------------------------------------------------|
 C|-----7---7h8---7---8---7-8-7-5-7-----7-----8-8---5-5----------|
 G|-----5---5-----5---5---5-5-5-5-5-----5-----5-5---5-5----------|
 C|-0-0---0-----0---0---0-----------0-0---023-----0--------------|

 


 . . . . . . . . ... .


 


 Guitar 1 continues playing verse while Guitar 2 plays:


 


 Verse 1b Guitar 2


 

 
 D|-----------------------------------------------------------------------|
 A|-----------------------------------------------------------------------|
 F|-----------------------------------------------------------------------|
 C|-----------------------------------------------------------------------|
 G|-----8---8/10--8----7-----8/10\8\7/8-----8----8/10--8/10---10-1212-----|
 C|-0-0---0-----0----0----0-------------0-0----0-----0------0-------------|

 


 . . . . . . . . . . .


 Verse 1b cont.


 

 
 D|------------------------------------------------------------------------|
 A|------------------------------------------------------------------------|
 F|------------------------------------------------------------------------|
 C|------------------------------------------------------------------------|
 G|----12--12/13---12---10---12/13\12\10/12-----12--12/13--12/13--13-1515--|
 C|-0-0---0------0----0----0----------------0-0----0-----0------0----------|

 


 . . . . . . . . . . .


 Pre-chorus:


 Guitar 1 and 2


 

 
 D|------------------------------------------------------------|
 A|------------------------------------------------------------|
 F|------------------------------------------------------------|
 C|-0-0-0-2-2-2-3-3-3-0-break-10-10-10------10------7----------|
 G|-0-0-0-2-2-2-3-3-3-0-break-10-10-10----8----8--5---5--------|
 C|-0-0-0-2-2-2-3-3-3-0-break-10-10-10--8-------5--------------|

 


 . . . . . . . . . . . . .


 Chorus:


 ( Tab from: http://www.guitartabs.cc/tabs/d/diecast/fade_away_tab_ver_4.html )


 Guitar 1


 

 
 D|-------------------------------------------------------------------------|
 A|-------------------------------------------------------------------------|
 F|-------------------------------------------------------------------------|
 C|-0-0-0-2-2-2-3-3-3-0-0-0-10-10-10-10------10-------7---------------------|
 G|-0-0-0-2-2-2-3-3-3-0-0-0-10-10-10-10----8----8---5---5-------------------|
 C|-0-0-0-2-2-2-3-3-3-0-0-0-10-10-10-10--8--------5-------------------------|

 


 . . . . . . . . . . . . . . . .


 Guitar 2


 

 
 D|------------------------------------------|
 A|------------------------------------------|
 F|2-2-2-4-4-4-5-5-5-7-7-7-12-12-12-10~~~7~~~|
 C|x-x-x-x-x-x-x-x-x-x-x-x-x--x--x--x----x---|
 G|0-0-0-2-2-2-3-3-3-5-5-5-10-10-10-8~~~~5~~~|
 C|------------------------------------------|

 


 


 Guitar 1


 

 
 D|-------------------------------------------------------------------------|
 A|-------------------------------------------------------------------------|
 F|-------------------------------------------------------------------------|
 C|-0-0-0-2-2-2-3-3-3-0-0-0-10-10-10-10------5-------2----------------------|
 G|-0-0-0-2-2-2-3-3-3-0-0-0-10-10-10-10----3---3---0---0--------------------|
 C|-0-0-0-2-2-2-3-3-3-0-0-0-10-10-10-10--3-------0--------------------------|

 


 . . . . . . . . . . . . . . . .


 Guitar 2


 

 
 D|------------------------------------------------|
 A|------------------------------------------------|
 F|-12-12-12-10-10-10-9-9-9-7-7-7-5-5-5-5-5~~~-2~~~|
 C|-x--x--x---x-x-x---x-x-x-x-x-x-x-x-x-x-x----x---|
 G|-10-10-10--8-8-8---7-7-7-5-5-5-3-3-3-3-3~~~-0~~~|
 C|------------------------------------------------|

 


 


 Repeat chorus


 


 Post-Chorus bridge thing


 

 
 D|------------------|
 A|------------------|
 F|------------------| Guitar 1 X2 then plays intro
 C|------------------| Guitar 2 X3 then plays end of Guitar 1 intro
 G|------------------|
 C|-00000---0000000--|

 


 ..... .......


 Repeat intro


 repeat verse: Guitar 1 plays verse 1a while Guitar 2 plays verse 1b


 


 Verse 2:


 


 Guitar 1 and 2


 

 
 D|---------------------------------------------|
 A|---------------------------------------------|
 F|---------------------------------------------|
 C|-2-2-2h3-2-0-2h3p2p0h2-2-2-2h3--5-3-8-10-10--| X2
 G|-2-2-2h3-2-0-2h3p2p0h2-2-2-2h3--5-3-8-10-10--|
 C|-2-2-2h3-2-0-2h3p2p0h2-2-2-2h3--5-3-8-10-10--|

 


 


 repeat chorus


 


 Pre-solo bridge thing


 

 
 D|--------------------------|
 A|--------------------------|
 F|--------------------------|
 C|--------------------------| X4
 G|--------------------------|
 C|-00000---0000000---00000--|

 


 ..... ....... .....


 Guitar 1 continues to play that while Guitar 2 plays this with WAH:


 

 
 D|--------------------------------------------------------------------|
 A|--------------------------------------------------------------------|
 F|--------------------------------------------------------------------|

 


 C|00000000000033333322222222222222-555555555555555557777777777777777--|


 

 
 G|--------------------------------------------------------------------|
 C|--------------------------------------------------------------------|
 ++++++++++++--++++---+++++++++++ -----------------------------------|++++++++++++

 


 [++-++++++++++++++]  


 Middle of song ( dont care to name it)


 Guitar 1 and 2 play this next part till the chorus


 

 
 D|-----1-----1---1---------------------------------------------------||
 A|-----3-----3---3---------------------------------------------------||
 F|-----2-----2---2-----5-----5-5-----3-----3-3-----2-----2-2-2-------||
 C|-0-0-0-0-0-0-0-0-5-5-5-5-5-5-5-3-3-3-3-3-3-3-2-2-2-2-2-2-2-2-//12\\||
 G|-0-0-0-0-0-0-0-0-3-3-3-3-3-3-3-1-1-1-1-1-1-1-0-0-0-0-0-0-0-0-//12\\||
 C|-0-0-0-0-0-0-0-0---------------------------------------------//12\\||

 


 . . . . . . . . . . . . . . . . .


 

 
 D|-----1-----1-------------------------------------------------------------|
 A|-----3-----3-----3-1-----1----------1-----1---------------------------16*|
 F|-----2-----2---------3-2---3-2-0----0-----0-------------------12h14h15---|
 C|-0-0-0-0-0-0-0-0--------------------2-----2-----------12h14h15-----------|
 G|-0-0-0-0-0-0-0-0----------------3-3-3-3-3-3-3-12h14h15-------------------|
 C|-0-0-0-0-0-0-0-0---------------------------------------------------------|

 


 . . . . . . . . . . .


 

 
 D|-----------------------------------------------------------|
 A|-----------------------------------------------------------|
 F|----3-----3-----3-3-3-3-5-5-5-----2-----2-----2---2--------|
 C|3-3-3-3-3-3-3-3-3-3-3-3-5-5-5-2-2-2-2-2-2-2-2-2---2--//12\\|
 G|1-1-1-1-1-1-1-1-1-1-1-1-3-3-3-0-0-0-0-0-0-0-0-0---0--//12\\|
 C|-----------------------------------------------------//12\\|

 


 . . . . . . . . . . . .


 


 

 
 D|-----1-----1-------------------------------------------------------------|
 A|-----3-----3-----3-1-----1----------1-----1---------------------------16*|
 F|-----2-----2---------3-2---3-2-0----0-----0-------------------12h14h15---|
 C|-0-0-0-0-0-0-0-0--------------------2-----2-----------12h14h15-----------|
 G|-0-0-0-0-0-0-0-0----------------3-3-3-3-3-3-3-12h14h15-------------------|
 C|-0-0-0-0-0-0-0-0---------------------------------------------------------|

 


 . . . . . . . . . . .


 

 
 D|----------------------------------------------------------------|
 A|-----------------------------------------------3-1-----1--------|
 F|----3-----3-----3-3-3-3-5-5-5-----2-----2---------3-2---3-2-0---|
 C|3-3-3-3-3-3-3-3-3-3-3-3-5-5-5-2-2-2-2-2-2-2-2-----------------0-|
 G|1-1-1-1-1-1-1-1-1-1-1-1-3-3-3-0-0-0-0-0-0-0-0-----------------0-|
 C|--------------------------------------------------------------0-|

 


 . . . . . . . . . . . .


 


 

 
 D|----------------|
 A|----------------|
 F|----------------|

 


 C|-break-10-10-10-|


 G|-break-10-10-10-|


 C|-break-10-10-10-|


 


 Reapeat chrous X2


 


 Outro:


 


 Guitar 1 and 2


 

 
 D|------------------|
 A|------------------|
 F|------------------|
 C|-----10-------7---| X2
 G|---8----8---5---5-|
 C|-8--------5-------|
 D|------------------|
 A|------------------|
 F|------------------|
 C|-----2-------5----|
 G|---0---0---3---3--|
 C|-0-------3--------|
 D|----------------------------------------------|
 A|----------------------------------------------|
 F|----------------------------------------------|
 C|-0-0-0-2-2-2-3-3-3-0-0-0-10-10-10-8~~~~~~~~~~~|
 G|-0-0-0-2-2-2-3-3-3-0-0-0-10-10-10-8~~~~~~~~~~~|
 C|-0-0-0-2-2-2-3-3-3-0-0-0-10-10-10-8~~~~~~~~~~~|


Important: The song above is NOT stored on the Chordie server. The original song is hosted at www.guitartabs.cc. Chordie works as a search engine and provides on-the-fly formatting. Chordie does not index songs against artists'/composers' will. To remove this song please click here.

This song is displayed as text-only. Transposing and tuning is only available for chordpro-songs.
Rate #1 of 3 versions

Jango Player

Login - add to songbook

SHARE PAGE  




You need to log in to post comments