Guitar Tabs, Chords and Lyrics
Major upgrade!! After one year development the new version of Chordie is now online! Please give feedback.


Runaround Sue  Dion

[INTRO] 
[D] Here's my story, it's sad but true [Bm] It's about a girl that I once knew
(Ooooooh.......) (Ooooooh.......)
[G] She took my love, then ran around [A] With every single guy in town
(Ooooooh.......) (Ooooooh.......)
[BRIDGE] 
[D] Whoa oh ho oh oh [Bm]Ho Whoa oh ho oh oh
(Hey, hey, Whoa hey hey hey hey) (Hey, hey, Whoa hey hey hey hey)
[G]Ho Whoa oh ho oh oh [A]Ho Da La La La
(Hey, hey, Whoa hey hey hey hey) (Hey)
[D] [D] [Bm] [Bm] [G] [G] [A] [A]  
 
 G:--------|--------|--------|--------|--------|--------|--------|--------|
 D:0---7---|0--70---|--------|--------|--------|--------|--------|--------|
 A:--------|--------|----9---|---9--0-|----5---|---5----|0---7---|0---7-0-|
 E:--------|------9-|7-------|7---7---|3-------|3---3-3-|--------|--------|

[D] Whoa oh ho oh oh [Bm]Ho Whoa oh ho oh oh
(Hey, hey, Whoa hey hey hey hey) (Hey, hey, Whoa hey hey hey hey)
[G]Ho Whoa oh ho oh oh [A]Ho
(Hey, hey, Whoa hey hey hey hey) (Hey Awwwwwwwwwwwwww)
[D] [D] [Bm] [Bm] [G] [G] [A] [A]  
 
 G:--------|--------|--------|--------|--------|--------|--------|--------|
 D:0---7---|0--70---|--------|--------|--------|--------|--------|--------|
 A:--------|--------|----9---|---9--0-|----5---|---5----|0-------|--------|
 E:--------|------9-|7-------|7---7---|3-------|3---3-3-|--------|--------|

[VERSE] 
[D] I guess I should have known it from the very start
[Bm] This girl would leave me with a broken heart
[G] Ah, listen people what I'm telling you
[A] "I keep away from Runaround Sue", oh yeah
[D] [D] [Bm] [Bm] [G] [G] [A] [A]  
 
 G:--------|--------|--------|--------|--------|--------|--------|--------|
 D:0---7---|0--70---|--------|--------|--------|--------|--------|--------|
 A:--------|--------|----9---|---9--0-|----5---|---5----|0-------|--------|
 E:--------|------9-|7-------|7---7---|3-------|3---3-3-|--------|--------|

[D] I miss her lips and the smile from her face
[Bm] The touch of her hand and this girl's warm embrace
[G] So if you don't want to cry like I do
[A] Keep away from Runaround Sue
[D] [D] [Bm] [Bm] [G] [G] [A] [A]  
 
 G:--------|--------|--------|--------|--------|--------|--------|--------|
 D:0---7---|0--70---|--------|--------|--------|--------|--------|--------|
 A:--------|--------|----9---|---9--0-|----5---|---5----|0-------|--------|
 E:--------|------9-|7-------|7---7---|3-------|3---3-3-|--------|--------|

[BRIDGE] 
[D] Whoa oh ho oh oh [Bm]Ho Whoa oh ho oh oh
(Hey, hey, Whoa hey hey hey hey) (Hey, hey, Whoa hey hey hey hey)
[G]Ho Whoa oh ho oh oh [A]Ho
(Hey, hey, Whoa hey hey hey hey) (Hey Awwwwwwwwwwwwww)
[D] [D] [Bm] [Bm] [G] [G] [A] [A]  
 
 G:--------|--------|--------|--------|--------|--------|--------|--------|
 D:0---7---|0--70---|--------|--------|--------|--------|--------|--------|
 A:--------|--------|----9---|---9--0-|----5---|---5----|0-------|--------|
 E:--------|------9-|7-------|7---7---|3-------|3---3-3-|--------|--------|

[G]She like to travel around
[D]She'll love you, then she'll put you down
[G]Now, people let me put you wise
[A]Sue goes out with other guys
[G] [G] [D] [D] [G] [G] [A] [A]  
 
 G:0-------|0-----0-|--------|--------|0-------|0-----0-|2-------|--------|
 D:----0---|---0----|0-------|0-----0-|----0---|---0----|--------|--------|
 A:--------|--------|----0---|---0----|--------|--------|--------|--------|
 E:--------|--------|--------|--------|--------|--------|--------|--------|

[VERSE] 
[D]With the moral of the story from the guy who knows I...
[Bm]I've been in love and my love still grows
[G]Ask any fool that she ever knew, they'll say,
"[A]Keep away from Runaround Sue"
[D] [D] [Bm] [Bm] [G] [G] [A] [A]  
 
 G:--------|--------|--------|--------|--------|--------|--------|--------|
 D:0---7---|0--70---|--------|--------|--------|--------|--------|--------|
 A:--------|--------|----9---|---9--0-|----5---|---5----|0-------|--------|
 E:--------|------9-|7-------|7---7---|3-------|3---3-3-|--------|--------|

[BRIDGE] 
[D] Yeah, keep away from this [Bm]girl I don't know what she'll
(Hey, hey, Whoa hey hey hey hey) (Hey, hey, Whoa hey hey hey hey)
[G]do Keep away from [A]Sue
(Hey, hey, Whoa hey hey hey hey) (Hey Awwwwwwwwwwwwww)
[D] [D] [Bm] [Bm] [G] [G] [A] [A]  
 
 G:--------|--------|--------|--------|--------|--------|--------|--------|
 D:0---7---|0--70---|--------|--------|--------|--------|--------|--------|
 A:--------|--------|----9---|---9--0-|----5---|---5----|0-------|--------|
 E:--------|------9-|7-------|7---7---|3-------|3---3-3-|--------|--------|

[G]She like to travel around, Yeah!
[D]She'll love you, then she'll put you down
[G]Now, people let me put you wise
[A]She goes out with other guys
[G] [G] [D] [D] [G] [G] [A] [A]  
 
 G:0-------|0-----0-|--------|--------|0-------|0-----0-|2-------|--------|
 D:----0---|---0----|0-------|0-----0-|----0---|---0----|--------|--------|
 A:--------|--------|----0---|---0----|--------|--------|--------|--------|
 E:--------|--------|--------|--------|--------|--------|--------|--------|

[VERSE] 
[D]Take the moral of the story from the guy who knows
[Bm]I've been in love and my love still grows
[G]Ask any fool that she ever knew, they'll say...
"[A]Keep away from Runaround Sue"
[D] [D] [Bm] [Bm] [G] [G] [A] [A]  
 
 G:--------|--------|--------|--------|--------|--------|--------|--------|
 D:0---7---|0--70---|--------|--------|--------|--------|--------|--------|
 A:--------|--------|----9---|---9--0-|----5---|---5----|0---7---|0---7-0-|
 E:--------|------9-|7-------|7---7---|3-------|3---3-3-|--------|--------|

[CODA] 
[D] Yeah, stay away from this [Bm]girl Don't you know what she'll
(Hey, hey, Whoa hey hey hey hey) (Hey, hey, Whoa hey hey hey hey)
[G]do Whoa, keep away from [A]Sue
(Hey, hey, Whoa hey hey hey hey) (Hey, hey, Whoa hey hey hey hey)
[D] [D] [Bm] [Bm] [G] [G] [A] [A]  
 
 G:--------|--------|--------|--------|--------|--------|--------|--------|
 D:0---7---|0--70---|--------|--------|--------|--------|--------|--------|
 A:--------|--------|----9---|---9--0-|----5---|---5----|0---7---|0---7-0-|
 E:--------|------9-|7-------|7---7---|3-------|3---3-3-|--------|--------|

Tabbed by Michael Oxner (moxner@nbnet.nb.ca)

Important: The song above is NOT stored on the Chordie server. The original song is hosted at www.guitartabs.cc. Chordie works as a search engine and provides on-the-fly formatting. Chordie does not index songs against artists'/composers' will. To remove this song please click here.

Text color:
Chord color:
Chord grids: 
Font size:    
Page size: 

A Bm D G
Rate #1 of 13 versions

Jango Player

Login - add to songbook

SHARE PAGE  




You need to log in to post comments